• Streaming gitaar liedjes spelen
  • Leer gitaar spelen & gitaarlessen
  • 75.000 leden
hij lijkt moeilijk maar hij is best makkelijk intro is akoustisch


intro

C             G6             Am           G6
eb|-----------------------0---------------------------0-------
Bb|---1-----1-------0-------0-----1-----1-------0-------0-----
Gb|-----0-----0-------0-------------2-----2-------0-----------   play 2x
Db|-------2-------------0-------------2-------------0---------
Ab|-3-------------2-------------0-------------2---------------
Eb|-----------------------------------------------------------

   
   Pre-Verse
   

eb|----------------------------------------------
Bb|----------------------------------------------
Gb|--5--5--5---------------------------------5---
Db|--5--5--5---5--5--5---7--7--7---3--3--3---5---
Ab|--3--3--3---5--5--5---7--7--7---3--3--3---3---
Eb|------------3--3--3---5--5--5---1--1--1-------
      "My name is Jonas"                    ^
                                        let ring
   
   Verse
   

eb|-----------------------------------------
Bb|-----------------------------------------
Gb|--5--5--5--------------------------------   play 6x
Db|--5--5--5---5--5--5---7--7--7---3--3--3--
Ab|--3--3--3---5--5--5---7--7--7---3--3--3--
Eb|------------3--3--3---5--5--5---1--1--1--
    "Thanks for all you've shown us..."


   
   End Verse
   

eb|----------------------------------------
Bb|----------------------------------------
Gb|--5--5--5-------------------------------
Db|--5--5--5---7--7--7---5--5--5--5--5--5--     play 4x
Ab|--3--3--3---7--7--7---5--5--5--5--5--5--
Eb|------------5--5--5---3--3--3--3--3--3--
     "Choo-choo train left right on time..."



    
    Chorus  
    
    2 guitar parts

   (Guitar 1)              "the workers are going home"
eb|-5--5--5--5--5--5--7--7--7---7---7---7---8---8---8---8---8---8---
Bb|-----------------------------------------------------------------
Gb|-2--2--2--2--2--2--4--4--4---4---4---4---5---5---5---5---5---5---
Db|-----------------------------------------------------------------
Ab|-----------------------------------------------------------------
Eb|-----------------------------------------------------------------
||
eb|-6--6--6--8--8--8--8--8--8--10--10--10--10--10--10--12--12--12---
Bb|-----------------------------------------------------------------
Gb|-3--3--3--5--5--5--5--5--5---7---7---7---7---7---7---9---9---9---
Db|-----------------------------------------------------------------
Ab|-----------------------------------------------------------------
Eb|-----------------------------------------------------------------
   (Guitar 2)


eb|-10--10--10--10--10--10--12--12--12--12--12--12--13--13--13--13--13--13---
Bb|--------------------------------------------------------------------------
Gb|--7---7---7---7---7---7---9---9---9---9---9---9--10--10--10--10--10--10---
Db|--------------------------------------------------------------------------
Ab|------------------------------------------
De rest van dit nummer alleen voor Gitaartabs leden! Maak gratis Gitaartabs account aan . 
Gitaar Tabs

Download, print en speel de Tab ♪ Weezer - My Name Is Jonas

Meld je aan en print, download of speel binnen 15 sec mee Tab ♫ Weezer - My Name Is Jonas.
Reeds 70.000 gitaristen zijn je voorgegaan.

Gratis Aanmelden Gitaartabs

Artiesten

Weezer

Song information

Naam: My Name Is Jonas
Album: The Blue Album
Notatie: Tab (TAB)
Category: Alternatieve rock
Niveau: 2/10

Statistiek

Downloads: 3.510
Commentaren:

Credits

Geplaat door: Les Paul
Geschreven door: Les Paul
Datum: 2008-06-24