• Streaming gitaar liedjes spelen
  • Leer gitaar spelen & gitaarlessen
  • 80.000 leden
Wereldberroemde schema's en Fills.

CCR (Creedence Clear Water Revival) - Down on the Corner

e|-------------------------|-------------------------|--------------------------|-------------------------|
B|-------------------------|-------------------------|--------------------------|-------------------------|
G|-------------------------|-------------------------|--------------------------|-------------------------|
D|-------------------------|-------------------------|--3-----3-3--------2-5-5--|-------------------------|
A|--3-----3-3-------2-3-3--|--3-----3-3-------2-3-3--|----5-3------5-3-3--------|--3-----3-3-------2-3-3--|
E|----5-3-----5-3-3--------|----5-3-----5-3-3--------|--------------------------|----5-3-----5-3-3--------|

Led Zeppelin en Aerosmith - Sweet emotion (LIVE)

e|---------------|
B|---------------|
G|---------------|
D|--2-2-4-5-7-7--|
A|--2-2-4-5-7-7--| Bij dit kleine schema kun je een soort van solo bedenken, net als het nummer zelf.
E|--0-0-2-3-5-0--| Dit schema kun je ook eindeloos doorspelen. 

Bon Jovi - You give love a bad name

e|-----------------|
B|-----------------|
G|-----------------|
D|----------1-1----|
A|--3---1-3-----3--|Dit kun je ook eindeloos doorspelen
E|----3------------|

Status Quo - Caroline
LET OP!!! HIER STAAT ERBOVEN AANGEGEVEN,HOEVAAK JE HET STUKJE MOET SPELEN!!!
                   4X      
>> Registreer, speel & download <<
Meld nu aan en speel de rest van Wereldberoemde Artiesten - Wereld Beroemde Schema's En Fills

>> Registreer, speel & download <<
         2X                 1X               1X               1X
e|------------------|----------------|------------------|----------------|----------------|
B|------------------|----------------|------------------|----------------|----------------|
G|------------------|----------------|------------------|----------------|----------------|
D|--10-10-12-13-12--|----------------|--10-10-12-13-12--|--8-8-10-11-10--|----------------|
A|--8--8--8--8--8---|--8-8-10-11-10--|--8--8--8--8--8---|--6-6-6--6--6---|--8-8-10-11-10--|
E|------------------|--6-6-6--6--6---|------------------|----------------|--6-6-6--6--6---|

John Fogerty - Rock and Roll girls
   
    G           C     D     G           C     D  
e|---------------------------------------------------|
B|---------------------------------------------------|
G|---------------------------------------------------|
D|--------------5-5-5-7-7-7-------------5-5-5-7-7-7--|
A|--5-5-5-5-5-5-3-3-3-5-5-5-5-5-5-5-5-5-3-3-3-5-5-5--|
E|--3-3-3-3-3-3-------------3-3-3-3-3-3--------------|

Kid Rock - All Summer long
   
    D   C   G           D   C   G
e|-------------------|-------------------|
B|-------------------|-------------------|
G|-------------------|-------------------|
D|--9-7-7-5----------|--9-7-7-5----------|
A|--5-5-3-3-5-5-7-5--|--5-5-3-3-5-5-7-5--|
E|----------3-3-3-3--|----------3-3-3-3--|



More info