• Streaming gitaar liedjes spelen
  • Leer gitaar spelen & gitaarlessen
  • 80.000 leden

Gitaarles: blues schema

Dit is een eenvoudig blueschema en is leuk met z'n 2e te spelen de 1e speelt de akkoorden de andere de solo (lead gitaar)

akkoorden:

A A A A
D D A A
E D A A A

lead gitaar:

bij A akoord

e----------------8------------------------------------------------------
b-----8---10------10---8---10------------------------------------
g--9--------------------------------------------------------------------
d------------------------------------------------------------------------
a------------------------------------------------------------------------
e------------------------------------------------------------------------

bij D akkoord laatste noot buigen

e----------------8--------------10--------------------------------------
b-----8---10------10---8--------------------------------------------
g--9---------------------------------------------------------------------
d--------------------------------------------------------------------------
a-------------------------------------------------------------------------
e-------------------------------------------------------------------------

bij E akkoord

e----------------8--------------------------------------------------------
b-----8---10------10---8---------------------------------------------
g--9----------------------------9---------------------------------------
d--------------------------------------------------------------------------
a--------------------------------------------------------------------------
e--------------------------------------------------------------------------

 

Probeer alle lessen voor slechts 1 euro! !

Gitaarles vragen, suggesties en opmerkingen

jeugenlien

Jeugenlien 2009-03-03 18:03:42 / Reply

uhu echt leukkk Lachebek(K)


jroon

Jroon 2008-09-21 18:09:28 / Reply

hej, ken jij dat ouderwetse Blues deuntje? die ze zongen tijdens het werk? tekst........ pa da da da tekst....... pa da da da.
is mischien onduidelijk maar ik hoop dat je me begrijpt.

Gr. Jeroen


rockgitaar

Rockgitaar 2008-07-21 13:07:55 / Reply

Leuk Gedaan, klinkt Super Mzzl! Tong