Diary of jane

Gitaarliedjes, tabs & akkoorden (chords) Diary of jane - breaking benjamin

Songtype: Tab

arrow&v

Markeer als favoriet

Favoriet

Gemarkeerd als favoriet

Capo:

0

breaking benjamin

breaking benjamin

Song
Album
Categorie

Diary of jane

Downloads
1206
Niveau
3

Geplaatst door
[b]lack[a]ngel
ProTabs-promo.jpg

Super mooi =)

Intro Gitaar 1 (Ben): 00:00 clean met Delay
C|---------------------------------------------------------------|
G|-----------------------------------------------13-13-----------|
Eb|-----14----14----14----14----15-15-14----14----------15----14--|
Bb|--12----12----12----12----12----------12----12----------12-----|
F|---------------------------------------------------------------|
Bb|---------------------------------------------------------------|
|Delay off| |Delay off|

Gitaar 2 (Aaron) 00:00 Stil

Gitaar 1 (Ben): 00:05 clean met Delay
C|---------------------------------------------------------------|
G|-----------------------------------------------13-13-----------|
Eb|-----14----14----14----14----15-15-14----14----------15----14--|
Bb|--12----12----12----12----12----------12----12----------12-----|
F|---------------------------------------------------------------|
Bb|---------------------------------------------------------------|
|Delay off| |Delay off|

Gitaar 2 (Aaron): 00:05 met wah en distortion
C|---------------------------------------------------------------|
G|---------------------------------------------------------------|
Eb|---------------------------------------------------------------|
Bb|---------------------------------------------------------------|
F|--5------------------------------------------------------------|
Bb|---------------------------------------------------------------|

Gitaar 1 (Ben): 00:10 clean met Delay
C|---------------------------------------------------------------|
G|-----------------------------------------------13-13-----------|
Eb|-----14----14----14----14----15-15-14----14----------15----14--|
Bb|--12----12----12----12----12----------12----12----------12-----|
F|---------------------------------------------------------------|
Bb|---------------------------------------------------------------|
|Delay off| |Delay off|

Gitaar 2 (Aaron): 00:11 met wah en distortion
C|---------------------------------------------------------------|
G|---------------------------------------------------------------|
Eb|---------------------------------------------------------------|
Bb|---------------------------------------------------------------|
F|--1------------------------------------------------------------|
Bb|---------------------------------------------------------------|

Gitaar 1: (Ben) 00:17
C|---------------------------------------------------------------|
G|-----------------13-13-------------------------13-13-----------|
Eb|-----14----14----------15----14----14----14----------15----14--|
Bb|--12----12----12----------12----12----12----12----------12-----|
F|---------------------------------------------------------------|
Bb|---------------------------------------------------------------|
|Delay off| |Delay off|

Gitaar 2: (Aaron) 00:17 met wah, de nullen kunnen, hoeven niet
C|---------------------------------------------------------------|
G|---------------------------------------------------------------|
Eb|---------------------------------------------------------------|
Bb|--0---0--0-0-0-0-0-0-0--0--0----0---0--0-0-0-0-0-0-0--0--0--0--|
F|--5---5--5-5-5-5-5-5-5--5--5/6--5---5--5-5-5-5-5-5-5--5--5--5--|
Bb|---------------------------------------------------------------|

Gitaar 1: 00:23 clean met Delay
C|----------------------------------------------------------|
G|-----------------13-13------------------------------------|
Eb|-----14----14----------15----14----14----14-----14brb-----|
Bb|--12----12----12----------12----12----12----12------------|
F|----------------------------------------------------------|
Bb|----------------------------------------------------------|
|Delay off| Distortion--^--Delay off

Gitaar 2: 00:23 C|----------------------------------------------------------|
G|----------------------------------------------------------|
Eb|----------------------------------------------------------|
Bb|--0---0--0-0-0-0-0-0-0--0--0----0--0-0-0-0-0000--
8--8--|
F|--5---5--5-5-5-5-5-5-5--5--5/6--5--5-5-5-5-5555--8--8--8--|
Bb|-------------------------------------------------8--8--8--|
|wah off|

Gitaar 1: 00:28 Distorted
C|-------------------------------------------------------------------|
G|-----------------13-13---------------------------------------------|
Eb|-----14-----14----------15----14-----14-----14---------------------|
Bb|--12-----12----12----------12-----12-----12----12-14brb------------|
F|-------------------------------------------------------------------|
Bb|-------------------------------------------------------------------|

Gitaar 2: 00:28
C|-------------------------------------------------------------------|
G|-------------------------------------------------------------------|
Eb|-------------------------------------------------------------------|
Bb|------------------(5)-----------------------------(5)--------------|
F|--0-0-5p0-0-7p3-0--3--0-8p7-0-3p2-0-0-5p0-0-7p3-0--3--0-8p7-0-3p2--|
Bb|--0-0-5p0-0-7p3-0-----0-8p7-0-3p2-0-0-5p0-0-7p3-0-----0-8p7-0-3p2--|

Gitaar 1: 00:34 Distorted
C|------------------------------------------------------------|
G|-----------------13-13--------------------------------------|
Eb|-----14-----14----------15----14-----14-----14--------------|
Bb|--12-----12----12----------12-----12-----12----12-14brb-----|
F|------------------------------------------------------------|
Bb|------------------------------------------------------------|

Gitaar 2: 00:34 Distorted
C|------------------------------------------------------------|
G|------------------------------------------------------------|
Eb|------------------------------------------------------------|
Bb|------------------(5)------------------------------8--8--8--|
F|--0-0-5p0-0-7p3-0--3--0-8p7-0-3p2-0-0-5p0-0-7p3-0--8--8--8--|
Bb|--0-0-5p0-0-7p3-0-----0-8p7-0-3p2-0-0-5p0-0-7p3-0--8--8--8--|

Gitaar 1: 00:40
C|---------------------------------------------------------------|
G|---------------------------------------------------------------|
Eb|---------------------------------------------------------------|
Bb|--------------------------------------------------5-------8-8--|
F|--------------------------------------------------5--0-0--8-8--|
Bb|--------------------------------------------------5--0-0--8-8--|x2

Gitaar 2: 00:40
C|---------------------------------------------------------------|
G|---------------------------------------------------------------|
Eb|---------------------------------------------------------------|
Bb|--------------5*-----5*----------------5*-----5*--5-------8-8--|
F|--0-0--0--0-0--5*0-0--5*0-0--0000--0-0--5*0-0--5*-5--0-0--8-8--|
Bb|--0-0--0--0-0----0-0----0-0--0000--0-0----0-0-----5--0-0--8-8--|x2


Gitaar 1: 00:57
C|-----------------------------------------------------------------|
G|-----------------------------------------------------------------|
Eb|-----------------------------------------------------------------|
Bb|--0------0------0----0----0----0------8----8----8----8----8--8---|
F|--0------0------0----0----0----0------8----8----8----8----8--8---|
Bb|--0------0------0----0----0----0------8----8----8----8----8--8---|

Refrein Gitaar 2: 00:57
C|--13-13--12-12--13-13--12-12--13-15---13-13--12-12-15-1515-1515--|
G|---x--x---x--x---x--x---x--x---x--x----x--x---x--x--x--x-x--x-x--|
Eb|--10-10---9--9--10-10---9--9--10-12---10-10---9--9-12-1212-1212--|
Bb|-----------------------------------------------------------------|
F|-----------------------------------------------------------------|
Bb|-----------------------------------------------------------------|

REfrein Gitaar 1: 01:03
C|-----------------------------------------------------------------|
G|-----------------------------------------------------------------|
Eb|--10--10--10--10-10-10---9---9---9---9--9--9---------------------|
Bb|--10--10--10--10-10-10---10--10--10--10-10-10-8--------8---------|
F|--8---8---8---8--8--8----7---7---7---7--7--7--8--------8---------|
Bb|----------------------------------------------8--------8---------|

Gitaar 2: 01:03
C|--17-17-17-17-17/18\17---15-15-15-15--15-15---10101010-12121212--|
G|---x--x--x--x--x--x--x----x--x--x--x---x--x----x-x-x-x--x-x-x-x--|
Eb|--14-14-14-14-14/15\14---12-12-12-12--12-12----7-7-7-7--9-9-9-9--|
Bb|-----------------------------------------------------------------|
F|-----------------------------------------------------------------|
Bb|-----------------------------------------------------------------|

Gitaar 1: 01:10
C|---------------------------------------------------------|
G|---------------------------------------------------------|
Eb|---------------------------------------------------------|
Bb|--8--------8----------10-------10-------10-------10------|
F|--8--------8----------10-------10-------10-------10------|
Bb|--8--------8----------10-------10-------10-------10------|

Gitaar 2: 01:10
C|--17171717-15151515---13131313-15151515-18181818-171717--|
G|---x-x-x-x--x-x-x-x----x-x-x-x--x-x-x-x--x-x-x-x--x-x-x--|
Eb|--14141414-12121212----9-9-9-9-12121212-15151515-141414--|
Bb|---------------------------------------------------------|
F|---------------------------------------------------------|
Bb|---------------------------------------------------------|

Gitaar 1: 01:14 Distorted
C|------------------------------------------------------------|
G|-----------------13-13--------------------------------------|
Eb|-----14-----14----------15----14-----14-----14--------------|
Bb|--12-----12----12----------12-----12-----12----12-14brb-----|
F|------------------------------------------------------------|
Bb|------------------------------------------------------------|

Gitaar 2: 01:14 Distorted
C|------------------------------------------------------------|
G|------------------------------------------------------------|
Eb|------------------------------------------------------------|
Bb|------------------(5)------------------------------8--8--8--|
F|--0-0-5p0-0-7p3-0--3--0-8p7-0-3p2-0-0-5p0-0-7p3-0--8--8--8--|
Bb|--0-0-5p0-0-7p3-0-----0-8p7-0-3p2-0-0-5p0-0-7p3-0--8--8--8--|

Gitaar 1: 01:20
C|---------------------------------------------------------------|
G|---------------------------------------------------------------|
Eb|---------------------------------------------------------------|
Bb|--------------------------------------------------5-------8-8--|
F|--------------------------------------------------5--0-0--8-8--|
Bb|--------------------------------------------------5--0-0--8-8--|
pmpm
Gitaar 2: 01:20
C|---------------------------------------------------------------|
G|---------------------------------------------------------------|
Eb|---------------------------------------------------------------|
Bb|--------------5*-----5*----------------5*-----5*--5-------8-8--|
F|--0-0--0--0-0--5*0-0--5*0-0--0000--0-0--5*0-0--5*-5--0-0--8-8--|
Bb|--0-0--0--0-0----0-0----0-0--0000--0-0----0-0-----5--0-0--8-8--|
pmpm pm pmpm pmpm pmpm pmpm pmpm pmpm pmpm

Gitaar 1: 01:29
C|------------------------------------------------------------|
G|------------------------------------------------------------|
Eb|------------------------------------------------------------|
Bb|--------------------------------------------------5----8-8--|
F|--------------------------------------------------5----8-8--|
Bb|--------------------------------------------------5----8-8--|

Gitaar 2: 01:29
C|------------------------------------------------------------|
G|------------------------------------------------------------|
Eb|------------------------------------------------------------|
Bb|--------------5*-----5*----------------5*-----5*--5----8-8--|
F|--0-0--0--0-0--5*0-0--5*0-0--0000--0-0--5*0-0--5*-5----8-8--|
Bb|--0-0--0--0-0----0-0----0-0--0000--0-0----0-0-----5----8-8--|


Gitaar 1: 01:37/01:49
C|-----------------------------------------------------------------|
G|-----------------------------------------------------------------|
Eb|-----------------------------------------------------------------|
Bb|--0------0------0----0----0----0------8----8----8----8----8--8---|
F|--0------0------0----0----0----0------8----8----8----8----8--8---|
Bb|--0------0------0----0----0----0------8----8----8----8----8--8---|

Gitaar 2: 01:37/01:49
C|--13-13--12-12--13-13--12-12--13-15---13-13--12-12-15-1515-1515--|
G|---x--x---x--x---x--x---x--x---x--x----x--x---x--x--x--x-x--x-x--|
Eb|--10-10---9--9--10-10---9--9--10-12---10-10---9--9-12-1212-1212--|
Bb|-----------------------------------------------------------------|
F|-----------------------------------------------------------------|
Bb|-----------------------------------------------------------------|

Gitaar 1: 01:43/01:55
C|----------------------------------------------|
G|----------------------------------------------|
Eb|--10--10--10--10-10-10--9---9---9---9--9--9---|
Bb|--10--10--10--10-10-10--10--10--10--10-10-10--|
F|--8---8---8---8--8--8---7---7---7---7--7--7---|
Bb|----------------------------------------------|

Gitaar 2: 01:43/01:55
C|--17-17-17-17-17/18\17--15--15-15-15---15-15--|
G|---x--x--x--x--x--x--x---x---x--x--x----x--x--|
Eb|--14-14-14-14-14/15\14--12--12-12-12---12-12--|
Bb|----------------------------------------------|
F|----------------------------------------------|
Bb|----------------------------------------------|

Gitaar 1: 02:00
C|-----------------------------------------|
G|-----------------------------------------|
Eb|-----------------------------------------|
Bb|--8---8---8---8------8---8---8---8--88---|
F|--8---8---8---8------8---8---8---8--88---|
Bb|--8---8---8---8------8---8---8---8--88---|

Gitaar 2: 02:00
C|--10101010-12121212--17171717--15151515--|
G|---x-x-x-x--x-x-x-x---x-x-x-x---x-x-x-x--|
Eb|---7-7-7-7--9-9-9-9--14141414--12121212--|
Bb|-----------------------------------------|
F|-----------------------------------------|
Bb|-----------------------------------------|

Gitaar 1: 02:03
C|-----------------------------------------|
G|-----------------------------------------|
Eb|-----------------------------------------|
Bb|--10--10--10--10----10--10--10--10-1010--|
F|--10--10--10--10----10--10--10--10-1010--|
Bb|--10--10--10--10----10--10--10--10-1010--|

Gitaar 2: 02:03
C|--13131313-15151515--18181818--17171717--|
G|---x-x-x-x--x-x-x-x---x-x-x-x---x-x-x-x--|
Eb|---9-9-9-9-12121212--15151515--14141414--|
Bb|-----------------------------------------|
F|-----------------------------------------|
Bb|-----------------------------------------|

Gitaar solo 1: 02:06
C|-------------------------------------------------|
G|-------------------------------------------------|
Eb|-------------------------------------------------|
Bb|-------------------------------------------------|
F|--0-0--0--000-000-00-2/3--0-0--0--000-000-000-1--|
Bb|--0-0--0--000-000-00-2/3--0-0--0--000-000-000-1--|
pmpm pm pmpmpmpmpm pmpm pm pmpmpmpmpmpm

Solo Gitaar 2: 02:06
C|---------------------------17--------------------|
G|--15-17------------------------13----------------|
Eb|--------17----------11h12----------12--\11-------|
Bb|---------------------------------------------12--|
F|-------------------------------------------------|
Bb|-------------------------------------------------|

Bridge Gitaar 1: 02:12
C|-------------------------------------------------------|
G|-------------------------------------------------------|
Eb|-------------------------------------------------------|
Bb|-------------------------------------------------------|
F|--0-0--0--000-000-00-2/3--00-0-0------8p7-0-5h7-0-3\2--|
Bb|--0-0--0--000-000-00-2/3--00-0-0------8p7-0-5h7-0-3\2--|


Solo Gitaar 2: 02:12
C|---------------------------------10--10----------------|
G|--15-17-----------------------13-13b-13b---------------|
Eb|--------17----------11h12-14---------------------------|
Bb|-------------------------------------------------------|
F|-------------------------------------------------------|
Bb|-------------------------------------------------------|


Bridge Gitaar1: 02:18
C|---------------------------------|
G|---------------------------------|
Eb|---------------------------------|
Bb|--3--3--3--3--3---5--5--5--5--5--|
F|--3--3--3--3--3---5--5--5--5--5--|
Bb|--3--3--3--3--3---5--5--5--5--5--|

Solo Gitaar 2: 02:18
C|------------------10-------------|
G|--10--------------13b------------|
Eb|--13b----------------------------|
Bb|---------------------------------|
F|---------------------------------|
Bb|---------------------------------|


Bridge Gitaar 1: 02:23
C|--------------------------------------------------|
G|--------------------------------------------------|
Eb|--------------------------------------------------|
Bb|--------------------------------------------------|
F|--0-0--0--000-000-00-2\3--0-0--0--000-000-000--5--|
Bb|--0-0--0--000-000-00-2\3--0-0--0--000-000-000--5--|


Solo Gitaar2: 02:23
C|--------------------------------------------------|
G|--15--17------17---------------13-----------------|
Eb|--19-----17---17----11h12-/14------12--\11--------|
Bb|----------------------------------------------12--|
F|--------------------------------------------------|
Bb|--------------------------------------------------|

Bridge Gitaar 1: 02:29
C|------------------------------------|
G|------------------------------------|
Eb|------------------------------------|
Bb|--3--3--3--3--3-3--5-5-5-8-8p7-5\3--|
F|--3--3--3--3--3-3--5-5-5-8-8p7-5\3--|
Bb|--3--3--3--3--3-3--5-5-5-8-8p7-5\3--|

Solo Gitaar 2: 02:29
C|--13-12--13---12---15---13-15-------|
G|-----13-----------------------------|
Eb|------------------------------------|
Bb|------------------------------------|
F|------------------------------------|
Bb|------------------------------------|

Refrein Gitaar 1: 02:35/02:46
C|-----------------------------------------------------------------|
G|-----------------------------------------------------------------|
Eb|-----------------------------------------------------------------|
Bb|--0------0------0----0----0----0------8----8----8----8----8--8---|
F|--0------0------0----0----0----0------8----8----8----8----8--8---|
Bb|--0------0------0----0----0----0------8----8----8----8----8--8---|

Gitaar2: 02:35/02:46
C|--13-13--12-12--13-13--12-12--13-15---13-13--12-12-15-1515-1515--|
G|---x--x---x--x---x--x---x--x---x--x----x--x---x--x--x--x-x--x-x--|
Eb|--10-10---9--9--10-10---9--9--10-12---10-10---9--9-12-1212-1212--|
Bb|-----------------------------------------------------------------|
F|-----------------------------------------------------------------|
Bb|-----------------------------------------------------------------|

02:36/02:47
C|-----------------------------------------------------------------|
G|-----------------------------------------------------------------|
Eb|---7-------------9----------10---------10-------12-------14------|
Bb|-----------------------------------------------------------------|
F|-----------------------------------------------------------------|
Bb|-----------------------------------------------------------------|

Gitaar 1: 02:41/02:52
C|----------------------------------------------|
G|----------------------------------------------|
Eb|--10--10--10--10-10-10--9---9---9---9--9--9---|
Bb|--10--10--10--10-10-10--10--10--10--10-10-10--|
F|--8---8---8---8--8--8---7---7---7---7--7--7---|
Bb|----------------------------------------------|

Gitaar 2: 02:41/02:52
C|--17-17-17-17-17/18\17--15--15-15-15---15-15--|
G|---x--x--x--x--x--x--x---x---x--x--x----x--x--|
Eb|--14-14-14-14-14/15\14--12--12-12-12---12-12--|
Bb|----------------------------------------------|
F|----------------------------------------------|
Bb|----------------------------------------------|


C|----------------------------------------------|
G|----------------------------------------------|
Eb|--14------12------10-------12-----10-----9----|
Bb|----------------------------------------------|
F|----------------------------------------------|
Bb|----------------------------------------------|

Outro Gitaar1: 02:58
C|-------------------------------------------------------------------|
G|-----------------13-13---------------------------------------------|
Eb|-----14-----14----------15----14-----14-----14---------------------|
Bb|--12-----12----12----------12-----12-----12----12-14brb------------|
F|-------------------------------------------------------------------|
Bb|-------------------------------------------------------------------|

Outro Gitaar 2: 02:58
C|-------------------------------------------------------------------|
G|-------------------------------------------------------------------|
Eb|-------------------------------------------------------------------|
Bb|------------------(5)-----------------------------(5)--------------|
F|--0-0-5p0-0-7p3-0--3--0-8p7-0-3p2-0-0-5p0-0-7p3-0--3--0-8p7-0-3p2--|
Bb|--0-0-5p0-0-7p3-0-----0-8p7-0-3p2-0-0-5p0-0-7p3-0-----0-8p7-0-3p2--|

Outro Gitaar 1: 03:04 Distorted
C|---------------------------------------------------------------|
G|-----------------13-13-----------------------------------------|
Eb|-----14-----14----------15----14-----14-----14-----------------|
Bb|--12-----12----12----------12-----12-----12----12-14brb----14--|
F|------------------------------------------------------------0--|
Bb|------------------------------------------------------------0--|

Gitaar 2: 03:04 Distorted
C|---------------------------------------------------------------|
G|---------------------------------------------------------------|
Eb|------------------------------------------------------------9--|
Bb|------------------(5)------------------------------8--8--8--0--|
F|--0-0-5p0-0-7p3-0--3--0-8p7-0-3p2-0-0-5p0-0-7p3-0--8--8--8--0--|
Bb|--0-0-5p0-0-7p3-0-----0-8p7-0-3p2-0-0-5p0-0-7p3-0--8--8--8--0--|

ProTabs promo.jpg

Onbeperkt en gratis toegang tot alle 25.000
Tabs & Chords en direct meespelen met

Artiest Liedje

...

Gitaarakkoorden breaking benjamin - Diary of jane

Dankzij de bladmuziek op deze pagina wordt het een stuk makkelijker om met de gitaar mee te spelen met Diary of jane van breaking benjamin De ProTabs van Gitaartabs worden door onze professionele gitaardocenten samengesteld. De tabs en chords zijn door leden zelf geplaatst. Deze undefined van breaking benjamin met Diary of jane is voor je geschreven door [b]lack[a]ngel

Tabs & Chords van breaking benjamin - Diary of jane

Bij de ProTabs delen we niet alleen de tablatuur maar ook de speelwijze van Diary of jane Met een beetje gitaar ervaring moet je dit gitaarliedje zeker kunnen spelen, maar als het niet lukt zijn we er altijd om je te helpen. Door een gratis account aan te maken krijg je niet alleen toegang tot deze tab ,akkoorden & tabs van Diary of jane maar kun je ook onbeperkt meespelen met een van de meer dan 25.000 andere tabs & chords in onze database.

Plaats opmerking

Verstuur

Beoordeel deze song

Rate UsDon’t love itNot greatGoodGreatLove itRate Us