I love you [ver 2]

Gitaarliedjes, tabs & akkoorden (chords) I love you [ver 2] - Ilse de lange

Songtype: Tab

arrow&v

Markeer als favoriet

Favoriet

Gemarkeerd als favoriet

Capo:

3

Ilse de lange

Ilse de lange

Song
Album
Categorie

I love you [ver 2]

the great escape

Downloads
1225
Niveau
2
Geplaatst door
tess
ProTabs-promo.jpg


G= 32xxx3
D= xx0232
C= x32x1x
Fadd9= x03213
F= xx3210
Am= x02210

Intro 2X: & Bridge 4X
[G
[e|---------3------------3------------3--
[B|-------------0------------0------------
[G|-----------------0------------0--------
[D|-----------------------------------------
[A|-----------------------------------------
[E|----3-----------------------------------
[D
[e|---------2----------
[B|------------3-------
[G|----------------2---
[D|----0---------------
[A|---------------------
[E|---------------------
[C
[e|---------0----------
[B|------------1-------
[G|----------------0--
[D|---------------------
[A|----3---------------
[E|---------------------

Verse 1 & 2 & 3:
[G
[e|---------3------------3------------3--
[B|-------------0------------0------------
[G|-----------------0------------0--------
[D|-----------------------------------------
[A|-----------------------------------------
[E|----3-----------------------------------
[D
[e|---------2----------
[B|------------3-------
[G|----------------2---
[D|----0---------------
[A|---------------------
[E|---------------------
[C
[e|---------0----------
[B|------------1-------
[G|----------------0--
[D|---------------------
[A|----3---------------
[E|---------------------


Fadd9:
e|---------3-------------3--------3----
B|-------------1------------1-----------
G|----------------2------------2-------
D|---------------------------------------
A|----0---------------------------------
E|---------------------------------------
F:
e|---------0------------0--------------0-
B|-------------1-------------1-----------
G|-----------------2------------2--------
D|-----3----------------------------------
A|----------------------------------------
E|-----------------------------------------


Chrorus: 2X
G
e|---------3------------3------------3--
B|-------------0------------0------------
G|-----------------0------------0--------
D|-----------------------------------------
A|-----------------------------------------
E|----3-----------------------------------
Fadd9
e|---------3-------------3--------3----
B|-------------1------------1-----------
G|----------------2------------2-------
D|---------------------------------------
A|----0---------------------------------
E|---------------------------------------
C
e|-----------0----------0----------0--
B|---------------1----------1----------
G|------------------2----------2-------
D|---------------------------------------
A|-----3--------------------------------
E|---------------------------------------
Am
e|----------0------------0----------0--
B|---------------1----------1-----------
G|------------------2----------2--------
D|-----------------------------------------
A|-----0---------------------------------
E|------------------------------------------


Intro:
G D C (2x)

Verse 1:

G D C
I didn't mean to be so cold
G D C
Like your arms had never hold me
G D C
Like a story never told,
Fadd9 F
But you know exactly how it goes

Verse 2:

G D C
Still you carry on with pride
G D C
When you touch me you're so tenderly
G D C
All the pain you keep inside,
Fadd9 F
Wouldn't stop you from defending me
Fadd9 F
Always remembering

Chorus:

G Fadd9
I love you,
C Am G
Your love's stronger than I can deny
Fadd9
I love you,
C Am
Your faith kept us safe

Verse 3:

G D C
Between two hearts you'll never find,
G D C
A deeper understanding
G D C
There's no use in asking why,
Fadd9 F
When the answer is right before my eyes
Fadd9 F
And i finally realize


Chorus:
G Fadd9
I love you,
C Am G
Your love's stronger than I can deny

Fadd9
I love you,
C Am
Your faith kept us safe

Bridge:
G D C
I didn't mean to be so cold...
G D C
I didn't mean to be so cold...
G D C
I didn't mean to be so cold...
G D C
I didn't mean to be so cold...


Chorus:
G Fadd9
I love you,
C Am G
Your love's stronger than I can deny
Fadd9
I love you,
C Am
Your faith kept us safe

G Fadd9
I love you,
C Am G
Your love's stronger than I can deny
Fadd9
I love you,
C Am
Your faith kept us safe

ProTabs promo.jpg

Onbeperkt en gratis toegang tot alle 25.000
Tabs & Chords en direct meespelen met

Artiest Liedje

...

Gitaarakkoorden Ilse de lange - I love you [ver 2]

Dankzij de bladmuziek op deze pagina wordt het een stuk makkelijker om met de gitaar mee te spelen met I love you [ver 2] van Ilse de lange De ProTabs van Gitaartabs worden door onze professionele gitaardocenten samengesteld. De tabs en chords zijn door leden zelf geplaatst. Deze undefined van Ilse de lange met I love you [ver 2] is voor je geschreven door tess

Tabs & Chords van Ilse de lange - I love you [ver 2]

Bij de ProTabs delen we niet alleen de tablatuur maar ook de speelwijze van I love you [ver 2] Met een beetje gitaar ervaring moet je dit gitaarliedje zeker kunnen spelen, maar als het niet lukt zijn we er altijd om je te helpen. Door een gratis account aan te maken krijg je niet alleen toegang tot deze tab ,akkoorden & tabs van I love you [ver 2] maar kun je ook onbeperkt meespelen met een van de meer dan 25.000 andere tabs & chords in onze database.

Plaats opmerking

Beoordeel deze song

Rate UsDon’t love itNot greatGoodGreatLove itRate Us

Bedankt voor je beoordeling!