Sweet Home Alabama
Lynyrd Skynyrd


Intro

|------------------|------------------|------------------|
|-------3----------|--------3---------|-----------3------|
|----------2-------|-----------0------|-----------0------|
|-0--0----------0--|------------------|-----------0------|
|------------------|-3p0h3--------3---|-----------2------|
|------------------|------------------|--3p0h3----3------|

|------------------|------------------|------------------|
|------------------|-------3----------|---------3--------|
|-------------2p0--|----------2-------|------------0-----|
|-----0h2p2--------|-0--0--------0----|------------------|
|-0h2-------2------|------------------|--3p0h3--------3--|
|------------------|------------------|------------------|

|------------------|------------------|------------------|
|---------3--------|------------------|--------3---------|
|---------0--------|0-0-2p0-0-4h0-0-5b|-----------2------|
|---------0--------|------------------|--0--0----------0-|
|---------2--------|------------------|------------------|
|-3p0h3---3--------|------------------|------------------|

|------------------|------------------|------------------|
|--------3---------|-----------3------|------------------|
|-----------0------|-----------0------|-------------2p0--|
|------------------|-----------0------|-----0h2h0--------|
|-3p0h3--------3---|-----------2------|-0h2-------2------|
|------------------|--3p0h3----3------|------------------|

|------------------|------------------|------------------|
|-------3----------|--------3---------|---------3------3-|
|----------2-------|-----------0------|---------0------0-|
|-0--0----------0--|------------------|---------0------0-|
|------------------|-3p0h3--------3---|---------2------2-|
|------------------|------------------|--3p0h3--3--3-3-3-|



|---------2----|-----------0-----|----------3------|
|---------3----|-----------1-----|----------0------|
|---------2----|-----------0-----|----------0------|
|--0--0---0----|-----------2-----|----------0------|
|--------------|---3p0h3---3-----|----------2------|
|--------------|-----------------|---3p0h3--3------|

The little licks are as follows:

       Lick 1      Lick2               Lick3
|------------------||------------------||-------------------||
|------------------||------------------||-------------------||
|-------------2p0--||0-0-2p0-0-4p0-0-5b||----0-----0-----0--||
|-----2p0h2--------||------------------||0h2---0h2---0h2----||
|-0h2-------2------||------------------||-------------------||
|------------------||------------------||-------------------||

The third possibility is as follows:

|--------------|--------------|-------------|-------------||
|--------------|--------------|-------------|-------------||
|--7--7--7--7--|--5--5--5--5--|-------------|-------------||
|--7--7--9--7--|--5--5--7--5--|--5--5----5--|----5-5-5-5--||
|--5--5--5--5--|--3--3--3--3--|--5--5----5--|----5-5-7-5--||
|--------------|--------------|--3--3----3--|----3-3-3-3--||



--------------------------------------------------------------
--------------------------------------------------------------
---------7-------55-------------------------------------------
----------7------55----------5tremelo-------------------------
-7h8h9--------5-------5h6h7-----------------------------------
-------------
De rest van dit nummer alleen voor Gitaartabs leden! Maak gratis Gitaartabs account aan . 
Gitaar Tabs

Speel de Tab ♪ Lynyrd Skynyrd - Sweet Home Alabama Tab

Meld je aan en speel binnen 15 sec mee met Tab ♫ Lynyrd Skynyrd - Sweet Home Alabama Tab.
Reeds 65.000 gitaristen zijn je voorgegaan.

Gratis Aanmelden Gitaartabs - Basis

Beoordeel deze Gitaartab: Lynyrd Skynyrd - Sweet Home Alabama Tab

Comments Lynyrd Skynyrd - Sweet Home Alabama Tab - tab

kenworth

Kenworth 2011-05-10

Zou je de tekst er bij willen zetten?


Plaats opmerkingen e.o. suggestie voor Lynyrd Skynyrd - Sweet Home Alabama Tab