Breakfast

Gitaarliedjes, tabs & akkoorden (chords) Breakfast - ks choice

Songtype: Tab

arrow&v

Markeer als favoriet

Favoriet

Gemarkeerd als favoriet

Capo:

0

ks choice

ks choice

Song
Album
Categorie

Breakfast

Downloads
439
Niveau
1

Geplaatst door
gitaartabs
ProTabs-promo.jpg

Breakfast

(riff 1:)

e|---3---3---3---3---3---3---3---3-
B|---3---3---3---3---3---3---3---3-
G|---0---0---0---0---0---0---0---0-
D|---------------------------------
A|-------------------------3---3*-- *variation: 2
E|-3---3---2---2---0---0-----------

(riff 2:)

e ---0---0---0---0---2---2---2---2---3---3---3---3---3---3---3---3-
B ---1---1---1---1---3---3---3---3---3---3---3---3---3---3---3---3-
G ---2---2---2---2---2---2---2---2---0---0---0---0---0---0---0---0-
D -----------------------------------------------------------------
A -0---0-----------------------------------------------------------
E ---------3---0---2---2---2---2---3---3---2---2---0---0---0---0---

e ---0---0---0---0---2---2---2---2---3---3---1---1---3---3---3---3-
B ---1---1---1---1---3---3---3---3---3---3---1---1---3---3---3---3-
G ---2---2---2---2---2---2---2---2---0---0---2---2---0---0---0---0-
D -----------------------------------------------------------------
A -0---0-----------------------------------------------------------
E ---------3---0---2---2---2---2---1---1---1---1---0---0---0---2---

=====

(riff 1 2X)

(riff 1 9X)
I woke up between dawn and night
Thought I heard the voice of Mommy
Sounds as if my parents have a fight
So I woke up my brother lying next to me

I wonder why she's making all that noise
Better go and check it out
So without trying to breathe only the sound of little feet
(Variation 1X)
We were about to discover what that noise was all about

(riff 2 1X)
And as we opened up the door
We saw them lying on the kitchen floor
We were grateful for they both did their best
But we said 'Hey, there must be an easier way to make breakfast'

(riff 1 3x)
They both got up real fast
As if they were caught (or something)
And then we understood at last
(Variation 1x)
It was a surprise breakfast they were planning

(riff 2 1x)
Mommy stumbled, 'Later, kids, you'll understand'
While Daddy was busy putting on his pants
We said 'We already do, don't worry, we'll do the rest'
So far for our quest, we made coffee, boiled eggs

(riff 1 2x)
We made them breakfast

End on a G chord (320033)

ProTabs promo.jpg

Onbeperkt en gratis toegang tot alle 25.000
Tabs & Chords en direct meespelen met

Artiest Liedje

...

Gitaarakkoorden ks choice - Breakfast

Dankzij de bladmuziek op deze pagina wordt het een stuk makkelijker om met de gitaar mee te spelen met Breakfast van ks choice De ProTabs van Gitaartabs worden door onze professionele gitaardocenten samengesteld. De tabs en chords zijn door leden zelf geplaatst. Deze undefined van ks choice met Breakfast is voor je geschreven door gitaartabs

Tabs & Chords van ks choice - Breakfast

Bij de ProTabs delen we niet alleen de tablatuur maar ook de speelwijze van Breakfast Met een beetje gitaar ervaring moet je dit gitaarliedje zeker kunnen spelen, maar als het niet lukt zijn we er altijd om je te helpen. Door een gratis account aan te maken krijg je niet alleen toegang tot deze tab ,akkoorden & tabs van Breakfast maar kun je ook onbeperkt meespelen met een van de meer dan 25.000 andere tabs & chords in onze database.

Plaats opmerking

Verstuur

Beoordeel deze song

Rate UsDon’t love itNot greatGoodGreatLove itRate Us

Bedankt voor je beoordeling!