Wild wood

Gitaarliedjes, tabs & akkoorden (chords) Wild wood - paul weller

Songtype: Tab

arrow&v

Markeer als favoriet

Favoriet

Gemarkeerd als favoriet

Capo:

2

paul weller

paul weller

Song
Album
Categorie

Wild wood

Downloads
1127
Niveau
1

Geplaatst door
gitaartabs
ProTabs-promo.jpg

Paul Weller
Wild Wood

(2e gitaarpartij)

intro+tussenloopje

e----
b----
g---0
d-02-
a----
E----

ok. hier de gebruikte accoorden voor de rest van het lieje
in chronologische volgorde

X1: X2: X3: X4: X5:
e0 0 1 1 0
b1 0 1 1 1
g2 0 2 1 2
d2 2 3 3 2
a0 0 - - 0
E- - - - -

de 2e gitaarparij is praktisch hetzelfde met andere losse loopjes

bij intro:(X3)
e10
b 10


terug naar accoord

high tide
mid afternoon
people fly by
and traffics boom
knowing
just where you're blowing
getting to where
you should be going


e-5-3--5-18-------
b-----5--18----1--
g-----------0-2--2
d-----------------
a-----------------
E-----------------


Don't let
them get you down
making you feel
e-------1-------1-
b-----1-------1---
g---2-------1-----
d-3-------3-------
a-----------------
E-----------------
guilty about
e---------------
b-----1-1--1-3-1
g-0-2----2------
d---------------
a---------------
E---------------
goldenring
will bring you riches
e-10-12-8-10-7-8-5-0-5-(0)
b---------------------
g---------------------
d---------------------
a---------------------
E---------------------
oh all the good things
you deserve and now

(solo 2e gitaarpartij)
solo*1
e----------------------------------
b----------------------------------
g---------------------------------5
d--------------5------------------5
a-5-7-7-5-7-5-7--7-5-3-5-3-5-3-5-7-
E----------------------------------


e-------
b--1-3-1
g-2-----
d-------
a-------
E-------
Finding
e----------
b-----0----
g---2---2--
d-2-------2
a----------
E----------
forever trying
e----------
b-------0--
g---2-----0
d-2---2----
a----------
E----------
find you're way out
e-------1-------1-
b-----1-------1---
g---2-------1-----
d-3-------3-------
a-----------------
E-----------------
of the wild wild wood
e-----------------
b-----1-1--1-3-1--
g-0-2----2-------2
d-----------------
a-----------------
E-----------------
Now there's
e--------
b---1-3-1
g-2------
d--------
a--------
E--------
no justice
e--------
b-------1
g-----2--
d---2----
a-0------
E--------
you've only yourselve
e-------1-------1-
b-----1-------1---
g---2-------1-----
d-3-------3-------
a-----------------
E-----------------
that you can trust in

e------
b-----1
g-0-2--
d------
a------
E------
And I say

High tide
mid afternoon
e-1-------1
b-1-----1--
g-2---1----
d-3-3------
a----------
E----------
oh people fly by
and the traffics boom
e--------
b-----1-1
g-0-2----
d--------
a--------
E--------
flowing
e-------- ---1
b---1-3-1 --1-
g-2------ -2--
d-------- 3---
a-------- ----
E-------- ----
just where you're blowing
e-10-12-8-10-7-8-5-0-5-(0)
b---------------------
g---------------------
d---------------------
a---------------------
E---------------------
getting to where
you should be going


(solo 2e gitaarpartij)
solo*1
e------------------------------------------------
b------------------------------------------------
g---------------------------------------5-5------
d---------------5-------------------5-7-----7-5-2
a-5-7-7-5-7-5-7---7-5-3-5-3-5-3-5-7--------------
E------------------------------------------------


Day by day
e-10--
b---10
g-----
d-----
a-----
E-----
you're world fades away
e-1-------1
b-1-----1--
g-2---1----
d-3-3------
a----------
E----------
waiting to feel
all the dreams i say
e--------
b-----1-1
g-0-2----
d--------
a--------
E--------
golden ring
e-------- ---1 -------
b---1-3-1 --1- --1-3-1
g-2------ -2-- 2------
d-------- 3--- -------
a-------- ---- -------
E-------- ---- -------
will bring you riches
e-----------1
b-1-3-1---0--
g-2-----2----
d-3----------
a------------
E------------
oh all the good things
e-------1-------1-
b-----1-------1---
g---2-------1-----
d-3-------3-------
a-----------------
E-----------------
you deserve
and now

e------
b-----1
g-0-2--
d------
a------
E------
And I said

Find me
Forever trying
e-1-------1
b-1-----1--
g-2---1----
d-3-3------
a----------
E----------
you're gonna find you're way out
of the wild wild wood
e-1-------1
b-1-----1--
g-2---1----
d-3-3------
a----------
E----------
I said you're gonna find you're way out
of the wild wild wood
e-------------------------------
b-----1----1-3-1-----------1-3--
g-0-2----2-----------0-0-2-----2
d----------------0-2------------
a-------------------------------
E-------------------------------
out of the wild wild wood

ProTabs promo.jpg

Onbeperkt en gratis toegang tot alle 25.000
Tabs & Chords en direct meespelen met

Artiest Liedje

...

Gitaarakkoorden paul weller - Wild wood

Dankzij de bladmuziek op deze pagina wordt het een stuk makkelijker om met de gitaar mee te spelen met Wild wood van paul weller De ProTabs van Gitaartabs worden door onze professionele gitaardocenten samengesteld. De tabs en chords zijn door leden zelf geplaatst. Deze undefined van paul weller met Wild wood is voor je geschreven door gitaartabs

Tabs & Chords van paul weller - Wild wood

Bij de ProTabs delen we niet alleen de tablatuur maar ook de speelwijze van Wild wood Met een beetje gitaar ervaring moet je dit gitaarliedje zeker kunnen spelen, maar als het niet lukt zijn we er altijd om je te helpen. Door een gratis account aan te maken krijg je niet alleen toegang tot deze tab ,akkoorden & tabs van Wild wood maar kun je ook onbeperkt meespelen met een van de meer dan 25.000 andere tabs & chords in onze database.

Plaats opmerking

Verstuur

Beoordeel deze song

Rate UsDon’t love itNot greatGoodGreatLove itRate Us

Bedankt voor je beoordeling!