All the small things

Gitaarliedjes, tabs & akkoorden (chords) All the small things - blink 182

Songtype: Bass-tab

arrow&v

Markeer als favoriet

Favoriet

Gemarkeerd als favoriet

Capo:

0

blink 182

blink 182

Song
Album
Categorie

All the small things

Downloads
49
Niveau
1
Geplaatst door
gitaartabs
ProTabs-promo.jpg

INTRO X2

G-----------------------------
D----------------0------------
A-33333333333333--------------
E------------------333333333--


MAIN RIFF

G---------------------------------------
D---------------------------------------
A--33333333-----------------------------
E-----------33333333-11111111-33333333--

PRE CHORUS

G-------------------------------------
D-------------------------------------
A--3----------------------------------
E----3-333-0-0000---------------------

CHORUS

G--------------------------------------
D-------------------55555555-33333333--
A--3333333333333333--------------------
E--------------------------------------

Play the whole thing once

BRIDGE

G-------------
D------3---5--
A--3----------
E-------------

ProTabs promo.jpg

Onbeperkt en gratis toegang tot alle 25.000
Tabs & Chords en direct meespelen met

Artiest Liedje

...

Gitaarakkoorden blink 182 - All the small things

Dankzij de bladmuziek op deze pagina wordt het een stuk makkelijker om met de gitaar mee te spelen met All the small things van blink 182 De ProTabs van Gitaartabs worden door onze professionele gitaardocenten samengesteld. De tabs en chords zijn door leden zelf geplaatst. Deze undefined van blink 182 met All the small things is voor je geschreven door gitaartabs

Tabs & Chords van blink 182 - All the small things

Bij de ProTabs delen we niet alleen de tablatuur maar ook de speelwijze van All the small things Met een beetje gitaar ervaring moet je dit gitaarliedje zeker kunnen spelen, maar als het niet lukt zijn we er altijd om je te helpen. Door een gratis account aan te maken krijg je niet alleen toegang tot deze bass-tab ,akkoorden & tabs van All the small things maar kun je ook onbeperkt meespelen met een van de meer dan 25.000 andere tabs & chords in onze database.

Plaats opmerking

Beoordeel deze song

Rate UsDon’t love itNot greatGoodGreatLove itRate Us

Bedankt voor je beoordeling!