Nothern star

Gitaarliedjes, tabs & akkoorden (chords) Nothern star - hole

Songtype: Bass-tab

arrow&v

Markeer als favoriet

Favoriet

Gemarkeerd als favoriet

Capo:

0

hole

hole

Song
Album
Categorie

Nothern star

Downloads
989
Niveau
2
Geplaatst door
gitaartabs
ProTabs-promo.jpg

Nothern Star

Intro:
F in barre | C | E in 7th | A5 |
E|---1---1-----1----1-----0----------5------|
B|----3---------3----------7---------5---7--|
G|-----3----------2---------0--------5---7--|
D|-----------------------------------5-6----|
A|-----------------------------------5------|
E|-----------------------------------5------|
You`ve got to play all the strings from A5 once together.

Couplet:
| Em | Em(b6) Em | Am | Asus4 Am |

Play this 7x, after this play 1x next chords.

| Am | C Cadd2 C| Em | Em Em(b6) Em|


Pre-Chorus:
| Am | D/F# | Em | D/F# | Am | D/F# | C/E | E Em |

| Am | D/F# | C/E | E Em | F5 C/E | E A5 |

After Pre-Chorus play the intro again.

Chorus:
| G5 | F5 C/E | E A5 | Play 3x
| Fsus2 C/E | E Asus2 | Em | Em(b6) Em | Play 1x
| F5 C/E | E A5 | Play 1x
| E(type2) | C/E | Play 2x
| Am | D/F# | G5 | E Em |

When you played chorus play Pre-chorus again.
All the chords are for the first part of the lyrics, the 2nd part of
the lyrics you play this all again.

Chords:
Am Asus4 Em Em(b6) C Cadd2 D/F#
E|------| |------| |----| |------| |-----| |-----| |-2--|
B|------| |------| |-2--| |-2----| |---3-| |--3--| |----|
G|---2--| |---2--| |-2--| |-2----| |--2--| |-2---| |----|
D|---2--| |---2--| |----| |------| |-----| |-----| |-2--|
A|-1----| |-3----| |----| |--3---| |-1---| |---4-| |--3-|
E|------| |------| |----| |------| |-----| |-----| |-2--|

E E(type2) G5 C/E
E|-----| |--------| |-3-| |-0----|
B|---2-| |--7-----| |---| |----3-|
G|---2-| |-6------| |---| |---2--|
D|-1---| |--------| |---| |------|
A|-----| |--------| |-3-| |--1---|
E|-----| |--------| |-3-| |------|

ProTabs promo.jpg

Onbeperkt en gratis toegang tot alle 25.000
Tabs & Chords en direct meespelen met

Artiest Liedje

...

Gitaarakkoorden hole - Nothern star

Dankzij de bladmuziek op deze pagina wordt het een stuk makkelijker om met de gitaar mee te spelen met Nothern star van hole De ProTabs van Gitaartabs worden door onze professionele gitaardocenten samengesteld. De tabs en chords zijn door leden zelf geplaatst. Deze undefined van hole met Nothern star is voor je geschreven door gitaartabs

Tabs & Chords van hole - Nothern star

Bij de ProTabs delen we niet alleen de tablatuur maar ook de speelwijze van Nothern star Met een beetje gitaar ervaring moet je dit gitaarliedje zeker kunnen spelen, maar als het niet lukt zijn we er altijd om je te helpen. Door een gratis account aan te maken krijg je niet alleen toegang tot deze bass-tab ,akkoorden & tabs van Nothern star maar kun je ook onbeperkt meespelen met een van de meer dan 25.000 andere tabs & chords in onze database.

Plaats opmerking

Beoordeel deze song

Rate UsDon’t love itNot greatGoodGreatLove itRate Us

Bedankt voor je beoordeling!