White, discussion

Gitaarliedjes, tabs & akkoorden (chords) white, discussion - live

Songtype: Bass-tab

arrow&v

Markeer als favoriet

Favoriet

Gemarkeerd als favoriet

Capo:

0

live

live

Song
Album
Categorie

white, discussion

Downloads
65
Niveau
2

Geplaatst door
gitaartabs
ProTabs-promo.jpg

White, Discussion


G:---------------------------------------------------|
D:---------------------------------------------------|
A:---6-------6-4--------4-3-------3-2-------2h4------|
E:------4h6--------3h4-------2h3---------------------|


G:-----------------------------------------4----6---|
D:--------------------------------------------------|
A:--6-------6-4--------4-3-------3-2---2-2----4-----|
E:-----4h6--------3h4-------2h3---------------------|




(different ending part...)
G:------------------------------------------4h6----6p4-------------|
D:-----------------------------------------------------h6p4--------|
A:---6-------6-4--------4-3-------3-2-----------------------h6p4---|
E:------4h6--------3h4-------2h3-----------------------------------|
...leaves me quite erect


*noisy chorus part *******
G:---------------------------------------------------|
D:---------------------------------------------------|
A:--4h6-6-6-6-6---4h6-6-6-6-6--\--2-2-2-2--4-4-4-4---|
E:---------------------------------------------------|

Note: Those C#'s (with *'s above them) are probably played
an octave lower on a 5 string (2nd fret of the B string)

"Any similarities between this transcription and the actual song is purely
coincidental."

ProTabs promo.jpg

Onbeperkt en gratis toegang tot alle 25.000
Tabs & Chords en direct meespelen met

Artiest Liedje

...

Gitaarakkoorden live - white, discussion

Dankzij de bladmuziek op deze pagina wordt het een stuk makkelijker om met de gitaar mee te spelen met white, discussion van live De ProTabs van Gitaartabs worden door onze professionele gitaardocenten samengesteld. De tabs en chords zijn door leden zelf geplaatst. Deze undefined van live met white, discussion is voor je geschreven door gitaartabs

Tabs & Chords van live - white, discussion

Bij de ProTabs delen we niet alleen de tablatuur maar ook de speelwijze van white, discussion Met een beetje gitaar ervaring moet je dit gitaarliedje zeker kunnen spelen, maar als het niet lukt zijn we er altijd om je te helpen. Door een gratis account aan te maken krijg je niet alleen toegang tot deze bass-tab ,akkoorden & tabs van white, discussion maar kun je ook onbeperkt meespelen met een van de meer dan 25.000 andere tabs & chords in onze database.

Plaats opmerking

Verstuur

Beoordeel deze song

Rate UsDon’t love itNot greatGoodGreatLove itRate Us

Bedankt voor je beoordeling!