Beavis en butthead theme

Gitaarliedjes, tabs & akkoorden (chords) Beavis en butthead theme - beavis and butthead

Songtype: Chords

arrow&v

Markeer als favoriet

Favoriet

Gemarkeerd als favoriet

Capo:

0

beavis and butthead

beavis and butthead

Song
Album
Categorie

Beavis en butthead theme

Downloads
384
Niveau
2
Geplaatst door
gitaartabs
ProTabs-promo.jpg

Beavis en Butthead Theme

F5 A5
E---------------------------------------------------------------------
B------10------8------------------10--10---10--8--6-------------------
G---------9---------7-7------------9---9----9--7--5-------------------
D---7---------------------10--7----------------------7-7--7-7--7-7----
A----------------------------------------------------7-7--7-7--7-7----
E----------------------------------------------------5-5--5-5--5-5----

--------------------------------------------------------------------------------
Beevis & Butthead Theme song.

: A // G/ D/ A// G/ DD G A Aminor Aminor // D/// Aminor// G start over....



It's in 4/4. The timing is shown by the beats above the tab/chords.
For the CRD section, you can figure out the strumming pattern yourself.


The opening tab --



1 2 3 4 1 2 3 4 1 2 3 4 (beats)
e-------------------------------------------------------------|
B------10-----------8--------------------------10---10-10-----|
G--------9-----------------7----7--------------9----9--9----7-|
D-7--------------7-------------------10---7-----------------7-|
A-------------------------------------------------------------|
E-------------------------------------------------------------|


1 2 3 4 (beats)
e---------------------|
B---------------------|
G---7----7--9---------|
D---7----7--7---------|
A---------------------|
E---------------------|



Then, the chords for the rest of the progression --


1 2 3 4 1 2 3 4 1 2 3 4 1 2 3 4 1 2 3 4
Am(5) C(8) D(10) D7 Am(5) E(1)


1 2 3 4 1 2 3 4 1 2 3 4
E7(1) Am(5) C D Am C D [...]
(3)(5)


Numbers in parentheses indicate suggested positions for playing the chords.

--------------------------------------------------------------------------------
Beavis & Butt-head Theme...

'Lo all,
I was REALLY bored one day last year and I figured this out quite by
accident. Guitar World recently tabbed it as well. Their transcription
has the same notes as I have here, just further up the neck. It's in
the key of A:

repeat:
E-|-----5--------3-----------3-|---5-5------3-3-2-||------------||
B-|-------5-------------3-3--1-|---5-5-5----3-3-3-||------------||
G-|--2-------2------0---2-2----|-2-------2--------||--------2-2-||
D-|----------------------------|------------------||--------2-2-||
A-|----------------------------|------------------||----3-0-0-0-||
E-|----------------------------|------------------||0-3---------||

Then there's a bit of other lead stuff, but it starts to fade out after
that so don't bother...

"Beavis and Butt-head theme song"

1let ring.............
|-------------------------------------------------------------------------|
|------10-------8-----------8--------10---10--10----8-----8---7-----------|
|---------9-----------7--7--9---------9----9---9----9-----7---7---2-----/-|
|---7---------7-----7-----------7--7--------------7--------------------/--|
|---------------------------------------------------------------------3---|
|-------------------------------------------------------------------------|

|----------------------------------------------------------------------|
|----------------------------------------------------------------------|
|------2--2-------------2--2---------/----2--2--------2--2-----------/-|
|------2--2-------------2--2--------/-----2--2--------2--2----------/--|
|---0-----------------0--------0---3----0-----------0----------0---3---|
|----------------------------------------------------------------------|

|---------------------------------------/-------------/---|
|--------------------5---------------7/-/---7------5/-/---|
|--------------------5---------------7/-----7------5/-----|
|--------------------5---------------------------------7--|
|---------------------------------------------------------|
|---------------------------------------------------------|

Lyrics:

Butt-head: "Huh huh huh uh, uhuhuh huh uh...."
Beavis: "Mm huh mm uhuh huh uh..."

Now that was cool!

--------------------------------------------------------------------------------
"Beavis and Butt-head theme song"

1let ring.............
|-------------------------------------------------------------------------|
|------10-------8-----------8--------10---10--10----8-----8---7-----------|
|---------9-----------7--7--9---------9----9---9----9-----7---7---2-----/-|
|---7---------7-----7-----------7--7--------------7--------------------/--|
|---------------------------------------------------------------------3---|
|-------------------------------------------------------------------------|

|----------------------------------------------------------------------|
|----------------------------------------------------------------------|
|------2--2-------------2--2---------/----2--2--------2--2-----------/-|
|------2--2-------------2--2--------/-----2--2--------2--2----------/--|
|---0-----------------0--------0---3----0-----------0----------0---3---|
|----------------------------------------------------------------------|

|---------------------------------------/-------------/---|
|--------------------5---------------7/-/---7------5/-/---|
|--------------------5---------------7/-----7------5/-----|
|--------------------5---------------------------------7--|
|---------------------------------------------------------|
|---------------------------------------------------------|

Lyrics:


Butt-head: "Huh huh huh uh, uhuhuh huh uh...."
Beavis: "Mm huh mm uhuh huh uh..."

ProTabs promo.jpg

Onbeperkt en gratis toegang tot alle 25.000
Tabs & Chords en direct meespelen met

Artiest Liedje

...

Gitaarakkoorden beavis and butthead - Beavis en butthead theme

Dankzij de bladmuziek op deze pagina wordt het een stuk makkelijker om met de gitaar mee te spelen met Beavis en butthead theme van beavis and butthead De ProTabs van Gitaartabs worden door onze professionele gitaardocenten samengesteld. De tabs en chords zijn door leden zelf geplaatst. Deze undefined van beavis and butthead met Beavis en butthead theme is voor je geschreven door gitaartabs

Tabs & Chords van beavis and butthead - Beavis en butthead theme

Bij de ProTabs delen we niet alleen de tablatuur maar ook de speelwijze van Beavis en butthead theme Met een beetje gitaar ervaring moet je dit gitaarliedje zeker kunnen spelen, maar als het niet lukt zijn we er altijd om je te helpen. Door een gratis account aan te maken krijg je niet alleen toegang tot deze chords ,akkoorden & tabs van Beavis en butthead theme maar kun je ook onbeperkt meespelen met een van de meer dan 25.000 andere tabs & chords in onze database.

Plaats opmerking

Beoordeel deze song

Rate UsDon’t love itNot greatGoodGreatLove itRate Us

Bedankt voor je beoordeling!