Travestie

Gitaarliedjes, tabs & akkoorden (chords) Travestie - boudewijn de groot

Songtype: Chords

arrow&v

Markeer als favoriet

Favoriet

Gemarkeerd als favoriet

Capo:

0

boudewijn de groot

boudewijn de groot

Song
Album
Categorie

Travestie

Downloads
2328
Niveau
1
Geplaatst door
gitaartabs
ProTabs-promo.jpg

TRAVESTIE

C G C G
e:--------0------|-----------3---|--------0------|-----------3---|
B:----1-------1--|----0---0h1---0|----1-------1--|----0---0h1---0|
G:--0---0---0---0|--0---0-----0--|--0---0---0---0|--0---0-----0--|
D:---------------|---------------|---------------|---------------|
A:3-------3------|---------------|3-------3------|---------------|
E:---------------|3-------3------|---------------|3-------3------|

D A C G D
e:-------0h2-----|---------------|----------3----|-------0h2-----|
B:----3-------3--|----2-------1--|----0--0h1----0|----3-------3--|
G:--2---2---2---2|--2---2---0---0|--0---0-----0--|--2---2---2---2|
D:0------0-------|---------------|---------------|0------0-------|
A:---------------|0-------3------|---------------|---------------|
E:---------------|---------------|3------3-------|---------------|

D C G C
e:-------0h2-----|--------0------|----------3----|----------0----|
B:----3-------3--|----1-------1--|----0--0h1----0|----0--0h1----0|
G:--2---2---2---2|--0---0---0---0|--0---0-----0--|--0---0-----0--|
D:0------0-------|---------------|---------------|---------------|
A:---------------|3-------3------|---------------|3------3-------|
E:---------------|---------------|3------3-------|---------------|
Ze is 17 jaar....

G D A C G
e:----------3----|-------0h2-----|---------------|---------------|
B:----0--0h1----0|----3-------3--|----0-------1--|----0--0h1----0|
G:--0---0-----0--|--2---2---2---2|--0---0---0---0|--0---0-----0--|
D:---------------|0------0-------|---------------|---------------|
A:---------------|---------------|0-------3------|---------------|
E:3------3-------|---------------|---------------|3------3-------|

D D C G
e:-------0h2-----|-------0h2-----|--------0------|----------3----|
B:----3-------3--|----3-------3--|----1-------1--|----0--0h1----0|
G:--2---2---2---2|--2---2---2---2|--0---0---0---0|--0---0-----0--|
D:0------0-------|0------0-------|---------------|---------------|
A:---------------|---------------|3-------3------|---------------|
E:---------------|---------------|---------------|3------3-------|
Zo'n meisje noemt....

C G D A C
e:--------0------|----------3----|-------0h2-----|---------------|
B:----1-------1--|----0--0h1----0|----3-------3--|----2-------1--|
G:--0---0---0---0|--0---0-----0--|--2---2---2---2|--2---2---0---0|
D:---------------|---------------|0------0-------|---------------|
A:3-------3------|---------------|---------------|0-------3------|
E:---------------|3------3-------|---------------|---------------|

G D D A
e:---------------|-------0h2-----|--------2------|--------0------|
B:----0--0h1----0|----3-------3--|----3-------3--|----2-------2--|
G:--0---0-----0--|--2---2---2---2|--2---2---2---2|--2---2---2---2|
D:---------------|0------0-------|0-------0------|---------------|
A:---------------|---------------|---------------|0-------0------|
E:3------3-------|---------------|---------------|---------------|
Verder niets er zijn....

D A G A D G A
e:---------------|0--------------|------------2--|---------------|
B:----3-------2--|----2-------0--|----2---------3|----0-------2--|
G:--2---2---2---2|--2---2---0---0|--2---2---2----|--0---0---2---2|
D:0--------------|---------------|--------0------|---------------|
A:--------0------|0--------------|0--------------|--------0------|
E:---------------|--------3------|---------------|3--------------|

D D C G
e:-------0h2-----|------2-3-2-0--|--------0------|-----------3---|
B:----3-------3--|----3---------3|----1-------1--|----0---0h1---0|
G:--2---2---2---2|--2------------|--0---0---0---0|--0---0-----0--|
D:0------0-------|0--------------|---------------|---------------|
A:---------------|---------------|3-------3------|---------------|
E:---------------|---------------|---------------|3-------3------|
Ik weet waarom ze me....

C G D A C
e:--------0------|----------3----|-------0h2-----|---------------|
B:----1-------1--|----0--0h1----0|----3-------3--|----2-------1--|
G:--0---0---0---0|--0---0-----0--|--2---2---2---2|--2---2---0---0|
D:---------------|---------------|0------0-------|---------------|
A:3-------3------|---------------|---------------|0-------3------|
E:---------------|3------3-------|---------------|---------------|

G D D D
e:---------------|-------0h2-----|-------0h2-----|---------------|
B:----0--0h1----0|----3-----3---3|----3-----3---3|----2-------2--|
G:--0---0-----0--|--2---2-----2--|--2---2-----2--|--2---2---2---2|
D:---------------|0--------------|0--------------|0-------0------|
A:---------------|---------------|---------------|---------------|
E:3------3-------|---------------|---------------|---------------|

A D G C A D
e:---------------|---------------|---------------|--------0------|
B:----2-------2--|----3-------0--|----1-------2--|----2-------2--|
G:--2---2---2---2|--2---2---0---0|--0---0---2---2|--2---2---2---2|
D:---------------|0--------------|---------------|0--------------|
A:0-------0------|---------------|3-------0------|---------------|
E:---------------|--------3------|---------------|---------------|

G A D D
e:--------3------|--------0------|-------0h2-----|--------2------|
B:----0-------0--|----2-------2--|----3-----3---3|----3-------3--|
G:--0---0---0---0|--2---2---2---2|--2---2-----2--|--2---2---2---2|
D:---------------|---------------|0------0-------|0-------0------|
A:---------------|0-------0------|---------------|---------------|
E:3-------3------|---------------|---------------|---------------|
En mijn geluk....
D D A G A
e:--------3-2-0--|--------2------|--------0------|---------------|
B:----3---------3|----3-------2--|----2-------2--|----0-------2--|
G:--2---2--------|--2---2---2---2|--2---2---2---2|--0---0---2---2|
D:0-------0------|0-------0------|---------------|---------------|
A:---------------|---------------|0-------0------|--------0------|
E:---------------|---------------|---------------|3--------------|

D D
e:-------0h2-----|--------2------|---------------|---------------|
B:----3-------3--|----3----------|---------------|---------------|
G:--2---2---2---2|--2---2--------|---------------|---------------|
D:0------0-------|0---0---0------|---------------|---------------|
A:---------------|---------------|---------------|---------------|
E:---------------|---------------|---------------|---------------|

Het laatste stuk is met plectrum:

G (2 maten)
(G) Ik ben een Lorelei (C) in travestie (G) waarop jij je te
(D) pletter valt (G) mijn ijdelheid heeft (C7) jouw verleid
(G) en jouw gezang is mij (D) niets meer waard (C)

Dit twee keer, 1e keer met tekst, twee keer met "nnngg":

(G) Ik wil je nu (C7) hier op het kleed (G) en hou niet op
tot je (F) alles vergeet (C) (G) Ik wil je nu hier (C7) op het
kleed (G) en hou niet op tot je (F) alles vergeet (G)


Travestie
Ze is zeventien jaar
en speelt gitaar,
verlegen zingt ze mijn repertoire,
zich niet bewust van het gevaar.
Ik kijk naar haar.

Zo'n meisje noemt zich dan een fan,
maar weet totaal niet wie ik ben.
Zingt teksten die ik niet meer ken
met haar Lolita stem.

Verder niets er zijn
alleen nog een paar dingen
die ik houd omdat geen mens er iets aan heeft.
Dat zijn mijn goede jeugdherinneringen,
die neem je mee zolang je verder leeft.

Ik weet waarom ze me vertrouwt,
ik ben haar eerste talent scout
en als ze zich daar niet aan houdt,
dan zit ze fout.

Ik ben te oud voor wat je bent,
ik ben te oud voor wat je zingt.
Die onschuld ben ik kwijt.
Wat jij daar zingt, is al geweest.
Jij bent de schoonheid, ik het beest.
Ik kleed je uit.

En mijn geluk ging zo maar voor de bijl,
maar mijn verdriet kon jou niet zoveel schelen,
en dat is toch beneden alle peil.

Ik ben een Lorelei in travestie,
waarop jij je te pletter vaart.
Mijn ijdelheid heeft jou verleid
en jouw gezang is mij niets meer waard.
Ik wil je nu, hier op het kleed,
en hou niet op tot je alles vergeet.
Ik wil je nu, hier op het kleed,
en hou niet op tot je alles vergeet.

ProTabs promo.jpg

Onbeperkt en gratis toegang tot alle 25.000
Tabs & Chords en direct meespelen met

Artiest Liedje

...

Gitaarakkoorden boudewijn de groot - Travestie

Dankzij de bladmuziek op deze pagina wordt het een stuk makkelijker om met de gitaar mee te spelen met Travestie van boudewijn de groot De ProTabs van Gitaartabs worden door onze professionele gitaardocenten samengesteld. De tabs en chords zijn door leden zelf geplaatst. Deze undefined van boudewijn de groot met Travestie is voor je geschreven door gitaartabs

Tabs & Chords van boudewijn de groot - Travestie

Bij de ProTabs delen we niet alleen de tablatuur maar ook de speelwijze van Travestie Met een beetje gitaar ervaring moet je dit gitaarliedje zeker kunnen spelen, maar als het niet lukt zijn we er altijd om je te helpen. Door een gratis account aan te maken krijg je niet alleen toegang tot deze chords ,akkoorden & tabs van Travestie maar kun je ook onbeperkt meespelen met een van de meer dan 25.000 andere tabs & chords in onze database.

Plaats opmerking

Beoordeel deze song

Rate UsDon’t love itNot greatGoodGreatLove itRate Us

Bedankt voor je beoordeling!