One Dance

Gitaarliedjes, tabs & akkoorden (chords) One Dance - Drake

Songtype: Chords

arrow&v

Markeer als favoriet

Favoriet

Gemarkeerd als favoriet

Capo:

6

Drake

Drake

Song
Album
Categorie

One Dance

Downloads
702
Niveau
2

Geplaatst door
noahbay7
ProTabs-promo.jpg

Capo on 6th


[Intro: Kyla + Wizkid]

Baby I like your style

Tab for woman's voice:

e|---------------------------------------------------------------------------|
B|-----------/5-0-----0------------------------------------------------------|
G|-----------------------0--0h2-2s--s-0h2-2s--s------------------------------|
D|---------------------2-----------------------------------------------------|
A|---------------------------------------------------------------------------|
E|-------0-------------------------------------------------------------------|


[Verse 1: Drake]

Em
Grips on your waist
G
Front way, back way

You know that I don't play
Am
Streets not safe
Am
But I never run away

Even when I'm away

Em G
OT, OT, there's never much love when we go OT
Am
I pray to make it back in one piece

I pray, I pray


[Hook: Drake]

Em
That's why I need a one dance
G
Got a Hennessy in my hand
Am
One more time 'fore I go
Am
Higher powers taking a hold on me

Em
I need a one dance
G
Got a Hennessy in my hand
Am
One more time 'fore I go
Am
Higher powers taking a hold on me


[Bridge: Kyla + Wizkid]

Baby I like your style

e|---------------------------------------------------------------------------|
B|-----------/5-0-----0------------------------------------------------------|
G|-----------------------0--0h2-2s--s-0h2-2s--s------------------------------|
D|---------------------2-----------------------------------------------------|
A|---------------------------------------------------------------------------|
E|-------0-------------------------------------------------------------------|


[Verse 2: Drake]

Em
Strength and guidance
G
All that I'm wishing for my friends
Am
Nobody makes it from my ends
Am
I had to bust up the silence
Em
You know you gotta stick by me
G
Soon as you see the text, reply me
Am
I don't wanna spend time fighting

We've got no time


[Hook: Drake]

Em
That's why I need a one dance
G
Got a Hennessy in my hand
Am
One more time 'fore I go
Am
Higher powers taking a hold on me
Em
I need a one dance
G
Got a Hennessy in my hand
Am
One more time 'fore I go
Am
Higher powers taking a hold on me


[Break: Wizkid]

(Best if strictly plucked, otherwise use hammer-ons and -offs)

Em
Got a pretty girl and she love me long time
G
Wine it, wine it, very long time
e|------------------------------------------5--------------------------------|
B|------------------------------5--8-5-8-7-5---------------------------------|
G|--------------4--7-4-7-5-4-------------------------------------------------|
D|---------------------------------------------------------------------------|
A|---------------------------------------------------------------------------|
E|---------------------------------------------------------------------------|

Am
Oh yeah, very long time
Am
Back up, back up, back up and wine it
Em
Back up, back up and wine it, girl
e|------------------------------------------5--------------------------------|
B|------------------------------5--8-5-8-7-5---------------------------------|
G|--------------4--7-4-7-5-4-------------------------------------------------|
D|---------------------------------------------------------------------------|
A|---------------------------------------------------------------------------|
E|---------------------------------------------------------------------------|

G
Back up, back up, back up and wine it
Am
Oh yeah, very long time
Am
Back, up, back up and wine it, girl


[Bridge: Kyla + Wizkid]

(Repeat this tab up until Drake sings the hook.)

e|---------------3-3---3-3---------------------------------------------------|
B|---------------3-3---3-3---1-1---1-1---1-1---1-1---------------------------|
G|---0-0---0-0---0-0---0-0---2-2---2-2---2-2---2-2---------------------------|X4
D|---2-2---2-2---------------2-2---2-2---2-2---2-2---------------------------|
A|---2-2---2-2--------------0-----0-----0------------------------------------|
E|-0------0-----3-----3-----------------------0------------------------------|

Tell me
I need to know, where do you wanna go?
Cause if you're down, I'll take it slow
Make you lose control
Where, where, where
Where, where, where, where
Oh yeah, very long time
Where, where, where
Back, up, back up and wine it, girl
Where, where, where, where
Cause if you're down
Back up, back up and
Cause if you're down
Back up, back up and
Cause if you're down
Back up, back up and


[Hook: Drake]

Em
That's why I need a one dance
G
Got a Hennessy in my hand
Am
One more time 'fore I go
Am
Higher powers taking a hold on me
Em
I need a one dance
G
Got a Hennessy in my hand
Am
One more time 'fore I go
Am
Higher powers taking a hold on me



***********************
|/ Slide up
|h Hammer-on
|s Slap
***********************

ProTabs promo.jpg

Onbeperkt en gratis toegang tot alle 25.000
Tabs & Chords en direct meespelen met

Artiest Liedje

...

Gitaarakkoorden Drake - One Dance

Dankzij de bladmuziek op deze pagina wordt het een stuk makkelijker om met de gitaar mee te spelen met One Dance van Drake De ProTabs van Gitaartabs worden door onze professionele gitaardocenten samengesteld. De tabs en chords zijn door leden zelf geplaatst. Deze undefined van Drake met One Dance is voor je geschreven door noahbay7

Tabs & Chords van Drake - One Dance

Bij de ProTabs delen we niet alleen de tablatuur maar ook de speelwijze van One Dance Met een beetje gitaar ervaring moet je dit gitaarliedje zeker kunnen spelen, maar als het niet lukt zijn we er altijd om je te helpen. Door een gratis account aan te maken krijg je niet alleen toegang tot deze chords ,akkoorden & tabs van One Dance maar kun je ook onbeperkt meespelen met een van de meer dan 25.000 andere tabs & chords in onze database.

Plaats opmerking

Verstuur

Beoordeel deze song

Rate UsDon’t love itNot greatGoodGreatLove itRate Us

Bedankt voor je beoordeling!