Through her eyes

Gitaarliedjes, tabs & akkoorden (chords) through her eyes - dream theater

Songtype: Chords

arrow&v

Markeer als favoriet

Favoriet

Gemarkeerd als favoriet

Capo:

0

dream theater

dream theater

Song
Album
Categorie

through her eyes

Downloads
38
Niveau
1
Geplaatst door
cuca
ProTabs-promo.jpg

Intro

E|--------3--2-----|------3--2-----|-------3--2-----|------3--2-----|-------3--2------|
B|--------------3--|------------3--|-------------3--|------------3--|--------------3--|
G|-----0-----------|---0-----------|----0-----------|---0-----------|----0------------|
D|-----------------|---------------|----------------|---------------|-----------------|
A|-----------------|---------------|-2--------------|---------------|-----------------|
E|--3--------------|---------------|----------------|---------------|-0---------------|

E|------3--2-----|-------3--2-----|------3--2-----|
B|------------3--|-------------3--|------------3--|
G|---0-----------|----0-----------|---0-----------|
D|---------------|----------------|---------------|
A|---------------|-3--------------|---------------|
E|---------------|----------------|---------------|

G
She never really had a chance
D
On that fateful moonlit night
Em9
Sacrificed without a fight
C9
A victim of her circumstance

G
Now that I've become aware
D
And I've exposed this tragedi
Em9
A sadness grows inside of me
C9
It all seems so unfair

Em D
I'm learning all about my life
G
By looking through her eyes

(solo)
G D Em9 C9

G
Just beyond the churchyard gates
D
Where the grass is overgrown
Em9
I saw the writing on her stone
C9
I felt like I would suffocate

G
In loving memory of our child
D
So innocent, eyes open wide
Em9
I felt so empty as I cried
C9
Like part of me had died

Em D
I'm learning all about my life
Am
By looking through her eyes


And as her image
C
Wandered through my head
G
I wept just like a baby
D
As I lay awake in bed

Am
And I know what it's like
C
To lose someone you love
Em D
And this felt just the same

G
She wasn't given any choice
D
Desperation stole her voice
Em9
I've been given so much more in life
C9
I've got a son, I've got a wife

G
I had to suffer one last time
D
To grieve for her and say goodbye
Em9
Relive the anguish of my past
C9
To find out who I was at last

Em D
The door has opened wide
C
I'm turning with the tide
Am G D Em9 C9
Looking through her eyes.

G D Em9 C9

ProTabs promo.jpg

Onbeperkt en gratis toegang tot alle 25.000
Tabs & Chords en direct meespelen met

Artiest Liedje

...

Gitaarakkoorden dream theater - through her eyes

Dankzij de bladmuziek op deze pagina wordt het een stuk makkelijker om met de gitaar mee te spelen met through her eyes van dream theater De ProTabs van Gitaartabs worden door onze professionele gitaardocenten samengesteld. De tabs en chords zijn door leden zelf geplaatst. Deze undefined van dream theater met through her eyes is voor je geschreven door cuca

Tabs & Chords van dream theater - through her eyes

Bij de ProTabs delen we niet alleen de tablatuur maar ook de speelwijze van through her eyes Met een beetje gitaar ervaring moet je dit gitaarliedje zeker kunnen spelen, maar als het niet lukt zijn we er altijd om je te helpen. Door een gratis account aan te maken krijg je niet alleen toegang tot deze chords ,akkoorden & tabs van through her eyes maar kun je ook onbeperkt meespelen met een van de meer dan 25.000 andere tabs & chords in onze database.

Plaats opmerking

Beoordeel deze song

Rate UsDon’t love itNot greatGoodGreatLove itRate Us

Bedankt voor je beoordeling!