Tales of another broken home

Gitaarliedjes, tabs & akkoorden (chords) Tales of another broken home - green day

Songtype: Chords

arrow&v

Markeer als favoriet

Favoriet

Gemarkeerd als favoriet

Capo:

0

green day

green day

Song
Album
Categorie

Tales of another broken home

Downloads
506
Niveau
1

Geplaatst door
muyse012
ProTabs-promo.jpg

Intro:
G#5 F#5 C#5 x4
e|-------------------------------|
B|-------------------------------|
G|--------(bass)------------6----|
D|-6--------------------4---6----|
A|-6--------------------4---4----|
E|-4---4-4-4-4-4-4-4----2--------|

Main Riff:
G#5 F#5 C#5
e|-------------------------------|
B|-------------------------------|
G|--------------------------6----|
D|-6-6-6-6-6-6-6-6-6----4---6----|
A|-6-6-6-6-6-6-6-6-6----4---4----|
E|-4-4-4-4-4-4-4-4-4----2--------|

Chorus
C# G# C# G# C#G# D# G# D# G# D#G# x2
e|-------------------------------------|
B|-------------------------------------|
G|-6-----6-----6-----8-----8-----8-----|
D|-6--6--6--6--6-6---8--6--8--6--8-6---|
A|-4--6--4--6--4-6---6--6--6--6--6-6---|
E|----4-----4----4------4-----4----4---|

Solo 1:
x2
e|----------------------------------------------|
B|----------------------------------------------|
G|-10-13---13-15-11-13------11-10--10-11-8-10---|
D|----------------------------------------------|
A|----------------------------------------------|
E|----------------------------------------------|

Solo 2: x2
e|------------------------------------------------------------|
B|------------------------------------------------------------|
G|-9p8p6-9p8p6-9p8p6-9p6---11p9p8-11p9p8-11p9p8-11p9p8-11p8---|
D|----------------------8----------------------------------10-|
A|------------------------------------------------------------|
E|------------------------------------------------------------|

Piano Interlude:

C# D#
I don't feel any shame
G# C#
I wont apologize
C# D# G#
When there ain't nowhere WE can go

C# D#
Running away from pain
G# C#
When WE've been victimized
C# D#
Tales from another broken...


Order:

Intro
Main Riff x8
Chorus
Main Riff x8
Chorus x2
Main Riff x2
Main Riff x4 w/Solo 1
Chorus w/Solo 2
Piano Interlude
Main Riff x6


Lyrics:

To live and not to breathe
Is to die in tragedy (Verse 1)
To run, to run away
To find what you believe

And I
Leave behind (Chorus)
This hurricane of fucking lies

I lost my faith to this
This town that don't exist (Verse 2)
So I run, I run awy
The light of masochist

And I
Leave behind (Chorus)
This hurricane of fucking lies

And I
Walked this line (Chorus 2)
A million and one fucking times

But not this time

I don't feel any shame
I wont apologize
When there ain't nowhere you can go (Piano Interlude)
Running away from pain
When you've been victimized
Tales from another broken...

Home!
You're leavin'
You're leavin'
You're leavin'
You're leavin HOME!

ProTabs promo.jpg

Onbeperkt en gratis toegang tot alle 25.000
Tabs & Chords en direct meespelen met

Artiest Liedje

...

Gitaarakkoorden green day - Tales of another broken home

Dankzij de bladmuziek op deze pagina wordt het een stuk makkelijker om met de gitaar mee te spelen met Tales of another broken home van green day De ProTabs van Gitaartabs worden door onze professionele gitaardocenten samengesteld. De tabs en chords zijn door leden zelf geplaatst. Deze undefined van green day met Tales of another broken home is voor je geschreven door muyse012

Tabs & Chords van green day - Tales of another broken home

Bij de ProTabs delen we niet alleen de tablatuur maar ook de speelwijze van Tales of another broken home Met een beetje gitaar ervaring moet je dit gitaarliedje zeker kunnen spelen, maar als het niet lukt zijn we er altijd om je te helpen. Door een gratis account aan te maken krijg je niet alleen toegang tot deze chords ,akkoorden & tabs van Tales of another broken home maar kun je ook onbeperkt meespelen met een van de meer dan 25.000 andere tabs & chords in onze database.

Plaats opmerking

Verstuur

Beoordeel deze song

Rate UsDon’t love itNot greatGoodGreatLove itRate Us

Bedankt voor je beoordeling!