Wiseman

Gitaarliedjes, tabs & akkoorden (chords) Wiseman - james blunt

Songtype: Chords

arrow&v

Markeer als favoriet

Favoriet

Gemarkeerd als favoriet

Capo:

0

james blunt

james blunt

Song
Album
Categorie

Wiseman

Downloads
1660
Niveau
2
back too badlem

Geplaatst door
gitaartabs
ProTabs-promo.jpg

VERSE 1

She said to me
Bm
Go steady on me
D A
wanna tell me what the wiseman said when they
Em
Came down from heaven
Bm
Smoked nine till seven
D A
All the s*** that they could find but they
Em Bm
Couldn't escape from you they couldn't be free of you
D A
And now they know there is no way out and they're
G A
Really sorry now for what they've done they were three wisemen just trying

to have some fun

CHORUS
Am C
Look who's alone now
G D
It's not me it's not me
Am C
Those three wisemen they've got a
G D
Semi by the sea
Am F G D
Got to ask yourself the question where are you now?
Am F G D
Got to ask yourself the question where are you now?

VERSE 2
Really sorry now they weren't to know
They got caught up in your talent show
With you pernicity little b****** and your fancy dresses
Who just judge each other and try to impress but they
Couldn't escape from you
They couldn't be free of you
And now they now there's no way out and they're
Reall sorry now for what they've done they were three wisemen just trying to have some fun

CHORUS

SOLO
Em A Em D Em A G A Am C
E---------------------------------------------------------------------------|
B-----------------------6-6-6-6----------------------5-6-5-4----------4-4---|
G---------3-------------5-5-5-5-------3---------3-4-5-------5--3-3-5-5-5----|
D--3-5-5---3-5---3-5-5----------3-5-5--3-5---3-7----------------------------|
A---------------------------------------------------------------------------|
E---------------------------------------------------------------------------|

G D Am C G D Am
E---8-6-8-8----------------11-11-11-11-10-10--8-8-6--6-6-8-8-8------11-13-13-|
B6-8------6-4-6-4----4----------------------------------------4--------------|
G-----------------5----5----------------------------------------5------------|
D----------------------------------------------------------------------------|
A----------------------------------------------------------------------------|
E----------------------------------------------------------------------------|

C G D Am C G D
E-13-11-10-8--11-13-11-11-8-6-8-8-8-8-------------------------0-6-8-8-8-8-8-|
B--------------------------------------4-------------------4-6--------------|
G---------------------------------------5-------0-2-----0-2-----------------|
D--------------------------------------------0-2-----0-2--------------------|
A-----------------------------------------0-3-------------------------------|
E---------------------------------------------------------------------------|

CHORUS

Am F G D
Where are you now?
Am F G D
Where are you now?
Am F G D
Got to ask yourself the question where are you now?
Am F G Am
Got to ask yourself the question where are you now?

ProTabs promo.jpg

Onbeperkt en gratis toegang tot alle 25.000
Tabs & Chords en direct meespelen met

Artiest Liedje

...

Gitaarakkoorden james blunt - Wiseman

Dankzij de bladmuziek op deze pagina wordt het een stuk makkelijker om met de gitaar mee te spelen met Wiseman van james blunt De ProTabs van Gitaartabs worden door onze professionele gitaardocenten samengesteld. De tabs en chords zijn door leden zelf geplaatst. Deze undefined van james blunt met Wiseman is voor je geschreven door gitaartabs

Tabs & Chords van james blunt - Wiseman

Bij de ProTabs delen we niet alleen de tablatuur maar ook de speelwijze van Wiseman Met een beetje gitaar ervaring moet je dit gitaarliedje zeker kunnen spelen, maar als het niet lukt zijn we er altijd om je te helpen. Door een gratis account aan te maken krijg je niet alleen toegang tot deze chords ,akkoorden & tabs van Wiseman maar kun je ook onbeperkt meespelen met een van de meer dan 25.000 andere tabs & chords in onze database.

Plaats opmerking

Verstuur

Beoordeel deze song

Rate UsDon’t love itNot greatGoodGreatLove itRate Us

Bedankt voor je beoordeling!