Im yours [real version]

Gitaarliedjes, tabs & akkoorden (chords) Im yours [real version] - jason mraz

Songtype: Chords

arrow&v

Markeer als favoriet

Favoriet

Gemarkeerd als favoriet

Capo:

0

jason mraz

jason mraz

Song
Album
Categorie

Im yours [real version]

we can sing we can dance we can steal

Downloads
796
Niveau
1
Geplaatst door
gitaarspeler13
ProTabs-promo.jpg

powerchords
B 79987x 799xxx
F# 244322 244xxx of x-9-11-11-11-9
G#m 466444 466xxx of x-11-13-13-12-11
E x79997 x799xx of 12-14-14-13-12-12
C#/F x8666x x8666x of 13-16-15-13-14-13
F#/Bb 698xx 698xxx

akoestische versie: http://www.youtube.com/watch?v=LHnJGXwr-HU

NB: Jason Mraz speelt het nummer met een soort powerchords: hij
slaat alleen de laagste paar snaren aan.




Intro:
B F# G#m E
e |-7/9-7-----7/9------------------------|
B |-7/9-7-----7/9--7----7/9--4---4-4/5---|
G |----------------6----6/8--4---4-4-4---|
D |--------------------------------------|
A |--------------------------------------|
E |--------------------------------------|


B
Well uh you dawned on me and you bet I felt it,
F#
I tried to be chill but you're so hot that I melted,
G#m E
I fell right through the cracks, now I'm trying to get back


B
Before the cool done run out, I'll be giving it my bestest
F#
Nothing's going to stop me but divine intervention
G#m E
I reckon it’s again my turn, to win some or learn some


B F# G#m
But I won’t hesitate no more, no more
E
It can not wait, I'm yours


B - F# - G#m - E
hmmm hmmmm hmmmm hhmmmm


Well open up your mind and see like me
Open up your plans and damn you're free
Look into your heart and you'll find love love love love


B F#
Listen to the music of the moment people dance and sing
G#m
We’re just one big family
E C#/F
And it’s our Godforsaken right to be loved loved loved loved loved



B F# G#m
So I won’t hesitate no more, no more
E
It can not wait, I'm sure
B F# G#m
There's no need to complicate, our time is short
E
This is our fate, I'm yours


B F#/Bb G#m
Do do do do do do do do
F# E C#/F
Do do do do do do do do


I've been spending way too long checking my tongue in the mirror
And bending over backwards just to try to see it clearer
But my breath fogged up the glass
And so I drew a new face and laughed

I guess what I'll be saying is there ain't no better reason
To rid yourself of vanities and just go with the seasons
It's what we aim to do our name is our virtue


But I won't hesitate no more, no more
It can not wait, I'm yours


Well open up your mind and see like me
Open up your plans and damn you're free
Look into your heart and you'll find that the sky is yours
So please don't, please don't, please don't
There's no need to complicate ‘cause our time is short
This is, this is, this is our fate, I'm yours



intro op één gitaar:
v
e|--------------------------7/9--|
B|--------------------------7/9--|
G|-------------------------------|
D|-------------------------------|
A|-------------------------------|
E|-------------------------------|

v v v ^ v v ^ v v ^ v
e||---7-----------------------7/9--|
B||---7-----------------------7/9--|
G||*-----8--x-x-8--x-x-8--x-x------|
D||*-----9--x-x-9--x-x-9--x-x------|
A||------9--x-x-9--x-x-9--x-x------|
E||------7--x-x-7--x-x-7--x-x------|

v v v ^ v v ^ v v ^ v
e|-------------------------------|
B|--7-----------------------7/9--|
G|--6--6--x-x-6--x-x-6--x-x-6/8--|
D|-----8--x-x-8--x-x-8--x-x------|
A|-----9--x-x-9--x-x-9--x-x------|
E|-------------------------------|

v v v ^ v v ^ v v ^ v
e|-------------------------------|
B|--4-----------------------4----|
G|--4--4--x-x-4--x-x-4--x-x-4----|
D|-----6--x-x-6--x-x-6--x-x------|
A|-----6--x-x-6--x-x-6--x-x------|
E|-----4--x-x-4--x-x-4--x-x------|

____________________________________
/ |
v v v ^ v v ^ v v ^ v |
e|----------------------------------||
B|--4/5-----------------------7/9---||
G|--4----4--x-x-4--x-x-4--x-x-7/9--*||
D|-------6--x-x-6--x-x-6--x-x------*||
A|-------7--x-x-7--x-x-7--x-x-------||
E|----------------------------------||

v v v ^ v v ^ v v ^ v
e|-------------------------------|
B|--4/5--------------------------|
G|--4----4--x-x-4--x-x-4--x-x-4--|
D|-------6--x-x-6--x-x-6--x-x-6--|
A|-------7--x-x-7--x-x-7--x-x-7--|
E|-------------------------------|

ProTabs promo.jpg

Onbeperkt en gratis toegang tot alle 25.000
Tabs & Chords en direct meespelen met

Artiest Liedje

...

Gitaarakkoorden jason mraz - Im yours [real version]

Dankzij de bladmuziek op deze pagina wordt het een stuk makkelijker om met de gitaar mee te spelen met Im yours [real version] van jason mraz De ProTabs van Gitaartabs worden door onze professionele gitaardocenten samengesteld. De tabs en chords zijn door leden zelf geplaatst. Deze undefined van jason mraz met Im yours [real version] is voor je geschreven door gitaarspeler13

Tabs & Chords van jason mraz - Im yours [real version]

Bij de ProTabs delen we niet alleen de tablatuur maar ook de speelwijze van Im yours [real version] Met een beetje gitaar ervaring moet je dit gitaarliedje zeker kunnen spelen, maar als het niet lukt zijn we er altijd om je te helpen. Door een gratis account aan te maken krijg je niet alleen toegang tot deze chords ,akkoorden & tabs van Im yours [real version] maar kun je ook onbeperkt meespelen met een van de meer dan 25.000 andere tabs & chords in onze database.

Plaats opmerking

Beoordeel deze song

Rate UsDon’t love itNot greatGoodGreatLove itRate Us

Bedankt voor je beoordeling!