Pieces of you

Gitaarliedjes, tabs & akkoorden (chords) Pieces of you - jewel

Songtype: Chords

arrow&v

Markeer als favoriet

Favoriet

Gemarkeerd als favoriet

Capo:

0

jewel

jewel

Song
Album
Categorie

Pieces of you

Downloads
1536
Niveau
1

Geplaatst door
gitaartabs
ProTabs-promo.jpg

Pieces of You

(intro:)

Dm
E------1p0-1---------1p0-1---------1p0-1---------1p0-1----
B----3-------3----3--------3-----3-------3-----3-------3--
G---------------------------------------------------------
D----------------0---------------------------0------------
A--0---------------------------0--------------------------
E---------------------------------------------------------

G
E--------3-------------3------
B------3---3---------3---3----
G----0-------0-----0-------0--
D-----------------------------
A-----------------------------
E--3-------------3------------

Dm
E------1p0-1---------1p0-1---------1p0-1---------1p0-1----
B----3-------3-----3-------3-----3-------3-----3-------3--
G---------------------------------------------------------
D--0------------<12>-----------0------------<12>----------
A---------------------------------------------------------
E---------------------------------------------------------


(chord picking:)
(sometimes the fifth note is repeated after the sixth, just play what you feel)

Dm G
E-------1p0-1---------3-----
B-----3-------3-----3---3---
G---2-------------0-------0-
D-0-------------------------
A---------------------------
E---------------3-----------

Am Asus2 C Cmaj7
e-------0-------------0--------------0-------------0---------------------
B-----1---1---1-----0---0---0------1---1---1-----0---0---0---------------
G---2-------2-----2-------2------0-------0-----0-------0-----------------
D------------------------------------------------------------------------
A-0-------------0--------------3-------------3---------------------------
E------------------------------------------------------------------------

===

(intro)

Dm

G Dm
She's an ugly girl does it make you want to kill her
G Dm
She's an ugly girl do you want to kick in her face
G Dm
She's an ugly girl she doesn't pose a threat
G Dm
She's an ugly girl does that make you feel safe
Am Asus2 C Cmaj7
ugly girl Ugly girl
G C Cmaj7 G G Dm
Do you hate her 'cause she's pieces of you

She's a pretty girl, does she make you think nasty thoughts
She's a pertty girl, do you want to tie her down
She's a pretty girl, do you call her a bitch
She's a pretty girl, does she sleep with your whole town

Pretty girl, pretty Girl, Do you hate her 'cause she's pieces of you?

You say he's a faggot, does it make you want to hurt him
You say he's a faggot, do you want to kick in his brain
You say he's a faggot, does it make you sick to your stomach
You say he's a faggot, are you afraid you aren't just the same

Faggot, Faggot, do you hate him, 'cause he's pieces of you?

You say he's a Jew, does it mean that he's tight
You say he's a Jew, do you want to hurt his kids tonight
You say he's a Jew, he'll never wear that funny hat again
You say he's a Jew, as though being born were a sin

Oh jew, Oh Jew, Do you hate him 'cause he's pieces of you
Do you hate him 'cause he's pieces of you

ProTabs promo.jpg

Onbeperkt en gratis toegang tot alle 25.000
Tabs & Chords en direct meespelen met

Artiest Liedje

...

Gitaarakkoorden jewel - Pieces of you

Dankzij de bladmuziek op deze pagina wordt het een stuk makkelijker om met de gitaar mee te spelen met Pieces of you van jewel De ProTabs van Gitaartabs worden door onze professionele gitaardocenten samengesteld. De tabs en chords zijn door leden zelf geplaatst. Deze undefined van jewel met Pieces of you is voor je geschreven door gitaartabs

Tabs & Chords van jewel - Pieces of you

Bij de ProTabs delen we niet alleen de tablatuur maar ook de speelwijze van Pieces of you Met een beetje gitaar ervaring moet je dit gitaarliedje zeker kunnen spelen, maar als het niet lukt zijn we er altijd om je te helpen. Door een gratis account aan te maken krijg je niet alleen toegang tot deze chords ,akkoorden & tabs van Pieces of you maar kun je ook onbeperkt meespelen met een van de meer dan 25.000 andere tabs & chords in onze database.

Plaats opmerking

Verstuur

Beoordeel deze song

Rate UsDon’t love itNot greatGoodGreatLove itRate Us

Bedankt voor je beoordeling!