Waiting on the world to change

John mayer

Chords

arrow&v
Toevoegen
Markeer als favoriet
Favoriet
Gemarkeerd als favoriet

Capo:

0

Meer info

up

John mayer

Geplaatst door
gitaartabs
Song
Album
Categorie
Niveau

Waiting on the world to change

Chords

5
4
Downloads
ProTabs-promo.jpg

I've Been Asked for strumming Patterns, but its fairly straight forward.
Simply Put, I think that its just strumming, and then right before each change in chord, there's an accent on the off-beat.


Intro: D Bm G D

A Bm G D

D Bm G D
Me and all my friends, we're all misunderstood.

A Bm G D
They say we stand for nothing, and theres no way we ever could.

D Bm G D
Now we see everything thats going wrong with the world and those who lead it

A Bm G D
We just feel like we don't have the means to rise above and beat it.

D Bm G D
So we keep waiting, waiting on the world to change.

A Bm G D
We keep on waiting, waiting on the world to change.

D G Bm G
It's hard to beat the system, when you're standing at a distance,

A Bm G D
So we keep waiting, waiting on the world to change.

D Bm G D
Now if we had the power to bring our neighbors home from war

A Bm G D
They would have never missed a Christmas, No more ribbons on their door

D Bm G D
And when you trust your television, What you get is what you got

A Bm G D
Cause when they own the information, oh, They can bend it all they want

D Bm G D
That's why we're waiting Waiting on the world to change

A Bm G D
We keep on waiting Waiting on the world to change

D G Bm Em
It's not that we don't care, We just know that the fight ain't fair

A Bm G D
So we keep on waiting Waiting on the world to change



SOLO (First Part)
e|---------------------------------------------------------------|
B|--7~~5h7/10~~7h10/12~~10h12/15~~12h15/17~17/19~~15~~~----------|
G|---------------------------------------------------------------|
D|---------------------------------------------------------------|
A|---------------------------------------------------------------|
E|---------------------------------------------------------------|
1 2 3 1/2 (easier than counting the bends)
e|---------------------------------------------------------------|
B|---19b20r19b20r19b202r19---15~~~~~-----------------------------|
G|---------------------------------------------------------------|
D|---------------------------------------------------------------|
A|---------------------------------------------------------------|
E|---------------------------------------------------------------|

2nd Part
e|---------------------------------------------------------------|
B|----------12/15--10h12---------------7/10~---------------------|
G|-----11h14--------------11-----7h9-------9h11------------------|
D|---------------------------------------------12~~~~~~----------|
A|---------------------------------------------------------------|
E|---------------------------------------------------------------|


D Bm G D
And we're still waiting Waiting on the world to change

A Bm G D
We keep on waiting Waiting on the world to change

D G Bm G
One day our generation, Is gonna rule the population

A Bm G D
So we keep on waiting Waiting on the world to change

A Bm G D
Now we keep on waiting Waiting on the world to change

A Bm G D
We keep on waiting, waiting on the world to change.

G D
Waiting on the world to change(x4) ...... meld je aan om alles te spelen .............

Bekijk & plaats opmerkingen

ProTabs promo.jpg

Meld je aan en speel mee met

John mayer - Waiting on the world to change

🎸 Onbeperkt liedjes (live) meespelen

🎸 Speel bekende riff's

🎸 Leer je techniek te verbeteren