Cry cry cry

Gitaarliedjes, tabs & akkoorden (chords) Cry cry cry - johnny cash

Songtype: Chords

arrow&v

Markeer als favoriet

Favoriet

Gemarkeerd als favoriet

Capo:

0

johnny cash

johnny cash

Song
Album
Categorie

Cry cry cry

Downloads
539
Niveau
1
Geplaatst door
ProTabs-promo.jpg

Intro:

E-----------------------------------|
B-----------------------------------|
G-----------------------------------|
D-----------------3-0---------------|
A-----0-1-1-1-1-1-------0---0-------|
E-1-3-----------------3---1---3-1---|


F
Everybody knows where you go when the sun goes down.
G C
I think you only live to see the lights of town.
F
I wasted my time when I would try, try, try.
Bb C F

When the lights have lost their glow, you're gonna cry, cry, cry.

F
Soon your sugar-daddies will all be gone.
G C
You'll wake up some cold day and find you're alone.
F
You'll call to me but I'm gonna tell you: "Bye, bye, bye,"
Bb C F
When I turn around and walk away, you'll cry, cry, cry,

F C
You're gonna cry, cry, cry and you'll cry alone,
Bb F
When everyone's forgotten and you're left on your own.
G C F
You're gonna cry, cry, cry.

Solo:
e-------------------------------------------------------------------------------------------------------------------------|
B-------------------------------------------------------------------------------------------------------------------------|
G-------------------------------------------------------------------------------------------------------------------------|
D-----------------------------------------0-1-----0-1-----0-1-----0-1------------------------------------------1-1--------|
A-----0-1-----0-1-----0-1------0-1----1-3-----1-3-----1-3-----1-3---------0-1-----0-1-----0-1-----0-1----2-2-2-----2------|
E-1-3-----1-3-----1-3------1-3----------------------------------------1-3-----1-3-----1-3-----1-3--------------------3~1--|
Dit stuk van de soloPalm Muted spelen
<---------------------------------------------------------------------------------------------------->


I lie awake at night and wait 'til you come in.
You stay a little while and then you're gone again.
Every question that I ask, I get a lie, lie, lie.
For every lie you tell, you're gonna cry, cry, cry.

When your fickle little love gets old, no one will care for you.
You'll come back to me for a little love that's true.
I'll tell you no and you gonna ask me why, why, why?
When I remind you of all of this, you'll cry, cry, cry.

You're gonna cry, cry, cry and you'll cry alone,
When everyone's forgotten and you're left on your own.
You're gonna cry, cry, cry.

ProTabs promo.jpg

Onbeperkt en gratis toegang tot alle 25.000
Tabs & Chords en direct meespelen met

Artiest Liedje

...

Gitaarakkoorden johnny cash - Cry cry cry

Dankzij de bladmuziek op deze pagina wordt het een stuk makkelijker om met de gitaar mee te spelen met Cry cry cry van johnny cash De ProTabs van Gitaartabs worden door onze professionele gitaardocenten samengesteld. De tabs en chords zijn door leden zelf geplaatst. Deze undefined van johnny cash met Cry cry cry is voor je geschreven door undefined

Tabs & Chords van johnny cash - Cry cry cry

Bij de ProTabs delen we niet alleen de tablatuur maar ook de speelwijze van Cry cry cry Met een beetje gitaar ervaring moet je dit gitaarliedje zeker kunnen spelen, maar als het niet lukt zijn we er altijd om je te helpen. Door een gratis account aan te maken krijg je niet alleen toegang tot deze chords ,akkoorden & tabs van Cry cry cry maar kun je ook onbeperkt meespelen met een van de meer dan 25.000 andere tabs & chords in onze database.

Plaats opmerking

Beoordeel deze song

Rate UsDon’t love itNot greatGoodGreatLove itRate Us

Bedankt voor je beoordeling!