Folsom prison

Gitaarliedjes, tabs & akkoorden (chords) Folsom prison - johnny cash

Songtype: Chords

arrow&v

Markeer als favoriet

Favoriet

Gemarkeerd als favoriet

Capo:

0

johnny cash

johnny cash

Song
Album
Categorie

Folsom prison

Downloads
1510
Niveau
2
Geplaatst door
sting 66
ProTabs-promo.jpg


Folsom Prison Blues: Johnny Cash

Intro
-------------------------|
-------------------------|
-------------------------|
--------1-1-------------|
-2-2-2------2----------|
-----------------3b-0---|


E
I hear the train a comin' It's rollin' 'round the bend,

E
And I ain't seen the sunshine, Since, I don't know when,


-----------------------|
----------------0-----|
----------------2-----|
----------------2-----|
----------------0-----|
--0--2-----4---------|


A E
I'm stuck in Folsom Prison, And time keeps draggin' on,


B7 E
But that train keeps a-rollin', on down to San Antone.

E
hen I was just a baby, My Mama told me, Son,

E
Always be a good boy, Don't ever play with guns,

A E
But I shot a man in Reno, Just to watch him die,

B7 E
When I hear that whistle blowin', I hang my head and cry.



E
I bet there's rich folks eatin', In a fancy dining car,

E
They're probably drinkin' coffee, And smokin' big cigars,
A E

Well I know I had it comin', I know I can't be free,
B7 E

But those people keep a-movin',And that's what tortures me.




SOLO

--------7-10-7-10-7-----------7-10-7-10-7--|
-8h9---------------------8h9-------------------|
--------------------------------------------------|(x2)
--------------------------------------------------|
--------------------------------------------------|
--------------------------------------------------|




|-(10)--7----------|------5-(5)-5-5---|------5-(5)-0------|------5-(5)-0------|
|-----------9-------|----2-2-(2)-2-2---|----2-2-(2)---0---|----5---------0----|
|---------------9---|----2---------------|----2---------------|-6-----------------|
|-------------------|----2---------------|---------------------|-------------------|
|-------------------|-0------------------|-0------------------|-------------------|
|-------------------|---------------------|--------------------|-------------------|


|-------9-(9)-0----|------------0-----|---------2----------------|
|----10------------|----0-0-(0)---0--|---------------------------|
|-9-------------0--|----1-1-(1)------|-------2-------------------|
|-------------------|----2-2-(2)------|------1--------------------|
|-------------------|----2-2-(2)------|-0-1-2----2-2-2-2-------|
|-------------------|-0----------------|--------------------3b-0--|



E
Well, if they freed me from this prison, If that railroad train was mine,

E
I bet I'd move it all a little, Farther down the line,

A
Far from Folsom Prison, That's where I want to stay,

B7 E
And I'd let that lonesome whistle, Blow my Blues away.


Outro
----------------------|
----------------------|
----------------------|
--------1-1----------|
-2-2-2------2-------|
---------------3b-0--|





ProTabs promo.jpg

Onbeperkt en gratis toegang tot alle 25.000
Tabs & Chords en direct meespelen met

Artiest Liedje

...

Gitaarakkoorden johnny cash - Folsom prison

Dankzij de bladmuziek op deze pagina wordt het een stuk makkelijker om met de gitaar mee te spelen met Folsom prison van johnny cash De ProTabs van Gitaartabs worden door onze professionele gitaardocenten samengesteld. De tabs en chords zijn door leden zelf geplaatst. Deze undefined van johnny cash met Folsom prison is voor je geschreven door sting 66

Tabs & Chords van johnny cash - Folsom prison

Bij de ProTabs delen we niet alleen de tablatuur maar ook de speelwijze van Folsom prison Met een beetje gitaar ervaring moet je dit gitaarliedje zeker kunnen spelen, maar als het niet lukt zijn we er altijd om je te helpen. Door een gratis account aan te maken krijg je niet alleen toegang tot deze chords ,akkoorden & tabs van Folsom prison maar kun je ook onbeperkt meespelen met een van de meer dan 25.000 andere tabs & chords in onze database.

Plaats opmerking

Beoordeel deze song

Rate UsDon’t love itNot greatGoodGreatLove itRate Us

Bedankt voor je beoordeling!