Rumble

Gitaarliedjes, tabs & akkoorden (chords) Rumble - Link Wray

Songtype: Chords

arrow&v

Markeer als favoriet

Favoriet

Gemarkeerd als favoriet

Capo:

0

 Link Wray

Link Wray

Song
Album
Categorie

Rumble

Downloads
1483
Niveau
2
Single

Geplaatst door
Milt Grant/Link Wray
ProTabs-promo.jpg

Dsus2 E
E ---0--0---0-|
B ---3--3---0-|
G ---2--2---1-|
D ---0--0---2-|2X
A ----------2-|
E ----------0-|


Dsus2 A
E ---0--0---0-|
B ---3--3---2-|
G ---2--2---2-|
D ---0--0---2-| 2X
A ----------0-|
E ------------|


Dsus2 E
E ---0--0---0-|
B ---3--3---0-|
G ---2--2---1-|
D ---0--0---2-|
A ----------2-|
E ----------0-|


Dsus2 B7 Arpeggio
E ---0--0------2--|
B ---3--3------0--|
G----2--2-----2---|
D----0--0----1----|
A ----------2-----|
E ----------------|

E-3-0--------------------------|
E-----3-0----------------------|
E---------2-0------------------|
E-------------2-0--------------|
E-----------------2-0----------|
E---------------------3b----0--|
hold


E--/12-12-12-12-12-12-------|
E--/13-13-13-13-13-13-------|
E--/12-12-12-12-12-12-------|
E---------------------------|
E---------------------------|
E---------------------------|

ProTabs promo.jpg

Onbeperkt en gratis toegang tot alle 25.000
Tabs & Chords en direct meespelen met

Artiest Liedje

...

Gitaarakkoorden Link Wray - Rumble

Dankzij de bladmuziek op deze pagina wordt het een stuk makkelijker om met de gitaar mee te spelen met Rumble van Link Wray De ProTabs van Gitaartabs worden door onze professionele gitaardocenten samengesteld. De tabs en chords zijn door leden zelf geplaatst. Deze undefined van Link Wray met Rumble is voor je geschreven door Milt Grant/Link Wray

Tabs & Chords van Link Wray - Rumble

Bij de ProTabs delen we niet alleen de tablatuur maar ook de speelwijze van Rumble Met een beetje gitaar ervaring moet je dit gitaarliedje zeker kunnen spelen, maar als het niet lukt zijn we er altijd om je te helpen. Door een gratis account aan te maken krijg je niet alleen toegang tot deze chords ,akkoorden & tabs van Rumble maar kun je ook onbeperkt meespelen met een van de meer dan 25.000 andere tabs & chords in onze database.

Plaats opmerking

Verstuur

Beoordeel deze song

Rate UsDon’t love itNot greatGoodGreatLove itRate Us

Bedankt voor je beoordeling!