Beautiful People

Gitaarliedjes, tabs & akkoorden (chords) Beautiful People - Melanie

Songtype: Chords

arrow&v

Markeer als favoriet

Favoriet

Gemarkeerd als favoriet

Capo:

0

Melanie

Melanie

Song
Album
Categorie

Beautiful People

Downloads
2049
Niveau
5
Geplaatst door
yv
ProTabs-promo.jpg

intro

C Cmaj7 D7 F
e -------------------------------------2---------0-----1---------1---|
b -----1---------1-----0---------0-----------1---------------1-------|
G -----------0---------------0-------2-----2---------2-----2---------|
D ---2-----2---------2-----2-------0-----0-----0---3-----3-----3-----|
A -3-----3-----3---3-----3-----3-------------------------------------|
E -------------------------------------------------------------------|

-------------------------------------------------------------------------------
C Cmaj7
Beautiful People
D7 F C
You live in the same world as I do
Cmaj7 D7
But somehow I never noticed
F D7beautilfull people
You before today
F G
I'm ashamed to say
-------------------------------------------------------------------------------
C Cmaj7
Beautiful people
D7 F
We share the same back door
C E
And it isn't right
D7 F
We never met before
D7
But then
F G
We may never meet again
F G
If I weren't afraid you'd laugh at me
F G
I would run and take all your hands
E D A
And I'd gather everyone together for a day
D
And when we gather'd
A
I'll pass buttons out that say
C Cmaj7
Beautiful people
D7 F
Then you'd never have to be alone
C E
'Cause there'll always be someone
D7 F D7
With the same button on as you
F G
Include him in everything you do.
-------------------------------------------------------------------------------
C Cmaj7
Beautiful people
D7 F
You ride the same subway
C E
As I do ev'ry morning
D7 F
That's got to tell you something
D7 F
We've got so much in common
D7 F D7
I go the same direction that you do
F G
So if you take care of me
F G
Maybe I'll take care of you
-------------------------------------------------------------------------------
C Cmaj7
Beautiful people
D7 F
You look like friends of mine
C E
And it's about time
D7 F D7
That someone said it here and now
F G
I make a vow that some time, somehow
E D
I'll have a meeting
A
Invite ev'ryone you know
D
I'll pass out buttons to
A
The ones who come to show
-------------------------------------------------------------------------------
C Cmaj7
Beautiful people
D7 F
Never have to be alone
C E
'Cause there'll always be someone
D7 F D7
With the same button on as you
F G
Include him in ev'rything you do
F G
He may be sitting right next to you
F G
He may be beautiful people too
F G
And if you take care of him
F G
Maybe I'll take care of you

ProTabs promo.jpg

Onbeperkt en gratis toegang tot alle 25.000
Tabs & Chords en direct meespelen met

Artiest Liedje

...

Gitaarakkoorden Melanie - Beautiful People

Dankzij de bladmuziek op deze pagina wordt het een stuk makkelijker om met de gitaar mee te spelen met Beautiful People van Melanie De ProTabs van Gitaartabs worden door onze professionele gitaardocenten samengesteld. De tabs en chords zijn door leden zelf geplaatst. Deze undefined van Melanie met Beautiful People is voor je geschreven door yv

Tabs & Chords van Melanie - Beautiful People

Bij de ProTabs delen we niet alleen de tablatuur maar ook de speelwijze van Beautiful People Met een beetje gitaar ervaring moet je dit gitaarliedje zeker kunnen spelen, maar als het niet lukt zijn we er altijd om je te helpen. Door een gratis account aan te maken krijg je niet alleen toegang tot deze chords ,akkoorden & tabs van Beautiful People maar kun je ook onbeperkt meespelen met een van de meer dan 25.000 andere tabs & chords in onze database.

Plaats opmerking

Beoordeel deze song

Rate UsDon’t love itNot greatGoodGreatLove itRate Us

Bedankt voor je beoordeling!