Drive

Gitaarliedjes, tabs & akkoorden (chords) Drive - r.e.m.

Songtype: Chords

arrow&v

Markeer als favoriet

Favoriet

Gemarkeerd als favoriet

Capo:

0

r.e.m.

r.e.m.

Song
Album
Categorie

Drive

Downloads
2486
Niveau
1

Geplaatst door
gitaartabs
ProTabs-promo.jpg

Drive

(Intro:)

Dm
e|---------1-----------1----------1-----1--------
B|-------------3-----------3-------------------3-
G|-----2-----------------------------0----------- x 3
D|-0---------------0----------0-------------3----
A|-----------------------------------------------
E|-----------------------------------------------


e|---------1-----------1-------------------------
B|-------------3-----------3-------3----3------3-
G|-----2---------------------------0h2--0------0-
D|-0---------------0----------0-------------3----
A|-----------------------------------------------
E|-----------------------------------------------

Dm
Smack, crack, bushwhacked
G Dm (with Intro riff)
Tie another one to the racks, baby

Dm
Hey kids, Rock and Roll
G Dm (with intro riff)
Nobody tells you where to go, baby

F
What if I ride, what if you walk
Am
What if you rock around the clock
G G
Tick, tock, tick, tock
Em
What if you did, what if you walk
Em G Dm (with intro riff)
What if you tried to get off, baby

Dm
Hey kids, where are you
G Dm Dm
Nobody tells you what to do, baby

Dm
Hey kids, shake a leg
G Dm (with intro riff)
maybe you're crazy in the head, baby

F
Maybe you did, maybe you walked
Am
Baby you rocked around the clock
G G
Tick, tock, tick, tock
Em
Maybe I ride, maybe you walk
Em G Dm (with intro riff)
Maybe I drive to get off, baby

C
Hey kids, shake a leg
Dm (with intro riff + solo)
maybe you're crazy in the head, baby

(solo:)

e|-5-3-1-------------5-3-1-------1/----
B|-------3-1---3/-1----------3------3--
G|---------0------0----------2------2--
D|-------------------------------------
A|-------------------------------------
E|-------------------------------------

C
Ollie Ollie Ollie Ollie Ollie
C Dm (with intro riff + solo)
Ollie Ollie in come free, baby

C
Hey kids, where are you
Dm (with intro riff)
Nobody tells you what to do, baby

Dm
Smack, crack, shackalack
G Dm (with intro riff)
Tie another one to your back, baby

Dm
Hey kids, Rock and Roll
G Dm (with intro riff)
Nobody tells you where to go, baby

F
Maybe you did, maybe you walked
Am
Maybe you rock around the clock
G G
Tick, tock, tick, tock
Em
Maybe I ride, maybe you walk
Em G Dm (with intro riff)
Maybe I drive to get off, baby

Em
Hey kids, where are you
Em G Dm (with intro riff)
Nobody tells you what to do, baby

Em
Hey kids, Rock and Roll
E G Dm (with intro riff)
Nobody tells you where to go, baby, baby, baby

ProTabs promo.jpg

Onbeperkt en gratis toegang tot alle 25.000
Tabs & Chords en direct meespelen met

Artiest Liedje

...

Gitaarakkoorden r.e.m. - Drive

Dankzij de bladmuziek op deze pagina wordt het een stuk makkelijker om met de gitaar mee te spelen met Drive van r.e.m. De ProTabs van Gitaartabs worden door onze professionele gitaardocenten samengesteld. De tabs en chords zijn door leden zelf geplaatst. Deze undefined van r.e.m. met Drive is voor je geschreven door gitaartabs

Tabs & Chords van r.e.m. - Drive

Bij de ProTabs delen we niet alleen de tablatuur maar ook de speelwijze van Drive Met een beetje gitaar ervaring moet je dit gitaarliedje zeker kunnen spelen, maar als het niet lukt zijn we er altijd om je te helpen. Door een gratis account aan te maken krijg je niet alleen toegang tot deze chords ,akkoorden & tabs van Drive maar kun je ook onbeperkt meespelen met een van de meer dan 25.000 andere tabs & chords in onze database.

Plaats opmerking

Verstuur

Beoordeel deze song

Rate UsDon’t love itNot greatGoodGreatLove itRate Us

Bedankt voor je beoordeling!