Everybody hurts

Gitaarliedjes, tabs & akkoorden (chords) Everybody hurts - r.e.m.

Songtype: Chords

arrow&v

Markeer als favoriet

Favoriet

Gemarkeerd als favoriet

Capo:

0

r.e.m.

r.e.m.

Song
Album
Categorie

Everybody hurts

Downloads
2708
Niveau
1

Geplaatst door
gitaartabs
ProTabs-promo.jpg

Everybody Hurts

D D G G
E|-------2-----------2-----------3-----------3------
B|-----3---3-------3---3-------0---0-------0---0----
G|---2-------2---2-------2---0-------0---0-------0--
D|-0-----------0------------------------------------
A|--------------------------------------------------
E|-------------------------3-----------3------------

When the day is long
and the night, the night is yours alone
When you're sure you've had enough


D D G G
E|-------2-----------2-----------3------------------
B|-----3---3-------3---3-------0---0-------0-----0--
G|---2-------2---2-------2---0-------0---0-----0----
D|-0-----------0------------------------------------
A|--------------------------------------------------
E|-------------------------3-----------3-----2------

of this life, well hang on


Em Em A A
E|-------0-----------0-----------0-----------0-----
B|-----0---0-------0-----------2---2-------2-------
G|---0-------0---0-----------2-------2---2---------
D|-------------------------------------------------
A|-------------------------0-----------0-----------
E|-0-----------0-------2-3---------------------3-2-

Don't let your self go
everybody cries


Em Em A A
E|-------0-----------0-----------0-----------0-----
B|-----0---0-------0-----------2---2-------2-------
G|---0-------0---0-----------2-------2---2---------
D|-------------------------------------------------
A|-------------------------0-----------0-----------
E|-0-----------0-------2-3-------------------------

Everybody hurts


D D G G
E|-------2-----------2-----------3-----------3------
B|-----3---3-------3---3-------0---0-------0---0----
G|---2-------2---2-------2---0-------0---0-------0--
D|-0-----------0------------------------------------
A|--------------------------------------------------
E|-------------------------3-----------3------------

sometimes
sometimes evrything is wrong
now it's time to sing along

when your day is night alone (hold on, hold on)
if you feel like letting go (hold on)
when you think you've had to much
of this life, well hang on

Everybody hurts
take comfort in your friends
everybody hurts

F# Bm
Don't throw your head
F# Bm
oh no
F# Bm
Don't throw your head
C G
When you feel like letting go
C Am
no, no, no, you're not alone

If you're on your own
in this life, the days and nights are long
when you think you've had too much
of this life, well hang on

Well everybody hurts
sometimes everybody cries
everybody hurts
sometimes
but everybody hurts
sometimes, so hold on, hold on,
everybody hurts,
you're not alone

ProTabs promo.jpg

Onbeperkt en gratis toegang tot alle 25.000
Tabs & Chords en direct meespelen met

Artiest Liedje

...

Gitaarakkoorden r.e.m. - Everybody hurts

Dankzij de bladmuziek op deze pagina wordt het een stuk makkelijker om met de gitaar mee te spelen met Everybody hurts van r.e.m. De ProTabs van Gitaartabs worden door onze professionele gitaardocenten samengesteld. De tabs en chords zijn door leden zelf geplaatst. Deze undefined van r.e.m. met Everybody hurts is voor je geschreven door gitaartabs

Tabs & Chords van r.e.m. - Everybody hurts

Bij de ProTabs delen we niet alleen de tablatuur maar ook de speelwijze van Everybody hurts Met een beetje gitaar ervaring moet je dit gitaarliedje zeker kunnen spelen, maar als het niet lukt zijn we er altijd om je te helpen. Door een gratis account aan te maken krijg je niet alleen toegang tot deze chords ,akkoorden & tabs van Everybody hurts maar kun je ook onbeperkt meespelen met een van de meer dan 25.000 andere tabs & chords in onze database.

Plaats opmerking

Verstuur

Beoordeel deze song

Rate UsDon’t love itNot greatGoodGreatLove itRate Us

Bedankt voor je beoordeling!