Old before i die

Gitaarliedjes, tabs & akkoorden (chords) old before i die - robbie williams

Songtype: Chords

arrow&v

Markeer als favoriet

Favoriet

Gemarkeerd als favoriet

Capo:

0

robbie williams

robbie williams

Song
Album
Categorie

old before i die

Downloads
Niveau
2
Geplaatst door
muyse012
ProTabs-promo.jpg

Intro:
|| A | G/A | A | G/A | A | G/A ||


A A
She's tak-in' me plac.es
A G/A
I should ne.ver have been.
A A
She's show-in' me fac.es
F#m F | G
I should nev-er have seen.
A A5+
Well these are strange. days
A6
We're liv-ing in to-day
G/A
C'est la vie I say


A F#m D5 E (with Fill_1)
I hope I'm old be-fore I die
A F#m
I hope I live to re-live.
D G
The days gone by.
A F#m Bm D (with Fill_1)
I hope I'm old be-fore I die.
A A5+
Well to-night I'm gon-na live for to-day.
Bm
So come a-long for the ride.
D5
I hope I'm old be.fore I die.


Fill_1:

D5 E (respectively G)
E||----------------------|-----------------------||
B||--------------2----3--|----2------------------||
G||--------2/-4----------|---------4----2--------||
D||----------------------|-----------------4--2--||
A||----------------------|-----------------------||
E||----------------------|-----------------------||



Instr:
|| A | G/A | A | G/A ||



A A
She's not feel-in' stab-le
A G/A
She's un-ab le to breathe
A A
Her heart's beat-ing fas-ter
F#m F | G
So I'll ask her to leave
A A5+
These are strange days
A6
We're liv-in' in to-day
G/A
Am I straight or gay?



A F#m D5 E
I hope I'm old be-fore I die
A F#m
I hope I live to see the day
D G
The Pope gets high
A F#m Bm D
I hope I'm old be-fore I die
A A5+
Well to-night I'm gon-na live for to-day
Bm
So come a-long for the ride
D5 F#m
I hope I'm old be-fore I die



Solo:
F#m D
E||----------------------|-----------------------|
B||----------------------|-----------------------|
G||-----------4r---2-----|--------------2--------|
D||-/4----------------4--|--------2/-4-----4--2--|
A||----------------------|-----------------------|
E||----------------------|-----------------------|


A B7 F#m
-----------------------|-------------------|----------------------|
-----------------------|-------------------|----------------------|
--------------------2--|-------------------|-----------4r---2-----|
--------------2--4-----|----4--------------|--4----------------3--|
--------2/-4-----------|-------------------|----------------------|
-----------------------|-------------------|----------------------|


G7 G7
---------------------|----------------------||
---------------------|--------------6----5--||
------------------4--|----5----7------------||
--------5----7-------|----------------------||
---------------------|----------------------||
---------------------|----------------------||




A A5+
Well these are strange days
A6
We're liv-ing in to-day
G/A G/A
C'est la vie I-say, I say, I say
C Am F G
I hope I'm old be-fore I die
C Am
I hope I live to re-live
F Bb
The days gone by.
C Am Dm F
I hope I'm old be-fore I die
C C5+
Well to-night I'm gon-na live for to-day
Dm
So come a-long for the ride
F5 C Am
I hope I'm old be-fore I die
F5
I hope I'm old be-fore
G C Am
Old be-fore I die
F
Old be-fore.
G C Am F5
Old be-fore I die and die, and die and die
G C Am F5 G
Old be-fore I die and die, and die and die, and die and die, and die




Chords:

A G/A F#m F G A/5+ A6 D5
E||-------3----2----1----|--3-------------------|
B||--2----3----2----1----|--3----2----2----3----|
G||--2----0----2----2----|--4----2----2----2----|
D||--2----0----4----3----|--5----3----4----0----|
A||--0----0----4----3----|--5----0----0---------|
E||------------2----1----|--3-------------------|


E D G Bm B7 G7 C Am F G
--0----2----3----2----|--2--------3--------|--3----5----1----3----|
--0----3----3----3----|--4--------3--------|--5----5----1----3----|
--1----2----0----4----|--2--------4--------|--5----5----2----4----|
--2----0----0----4----|--4--------3--------|--5----7----3----5----|
--2---------2----2----|--2--------5--------|--3----7----3----5----|
--0---------3---------|-----------3--------|-------5----1----3----|


Bb Dm C C/5+
--1----5----0---------||
--3----6----1----1----||
--3----7----0----1----||
--3----7----2----2----||
--1----5----3----3----||
----------------------||

ProTabs promo.jpg

Onbeperkt en gratis toegang tot alle 25.000
Tabs & Chords en direct meespelen met

Artiest Liedje

...

Gitaarakkoorden robbie williams - old before i die

Dankzij de bladmuziek op deze pagina wordt het een stuk makkelijker om met de gitaar mee te spelen met old before i die van robbie williams De ProTabs van Gitaartabs worden door onze professionele gitaardocenten samengesteld. De tabs en chords zijn door leden zelf geplaatst. Deze undefined van robbie williams met old before i die is voor je geschreven door muyse012

Tabs & Chords van robbie williams - old before i die

Bij de ProTabs delen we niet alleen de tablatuur maar ook de speelwijze van old before i die Met een beetje gitaar ervaring moet je dit gitaarliedje zeker kunnen spelen, maar als het niet lukt zijn we er altijd om je te helpen. Door een gratis account aan te maken krijg je niet alleen toegang tot deze chords ,akkoorden & tabs van old before i die maar kun je ook onbeperkt meespelen met een van de meer dan 25.000 andere tabs & chords in onze database.

Plaats opmerking

Beoordeel deze song

Rate UsDon’t love itNot greatGoodGreatLove itRate Us

Bedankt voor je beoordeling!