Friendship

Gitaarliedjes, tabs & akkoorden (chords) friendship - tenacious d

Songtype: Chords

arrow&v

Markeer als favoriet

Favoriet

Gemarkeerd als favoriet

Capo:

0

tenacious d

tenacious d

Song
Album
Categorie

friendship

Downloads
820
Niveau
2

Geplaatst door
gitaartabs
ProTabs-promo.jpg

B Ab
e|------------------------------------------------------|
B|------------------------------------------------------|
G|------------------------------------------------------|
D|-9-9-9-9-9-9-9-9--------------------6-6-6-6-----------|
A|-9-9-9-9-9-9-9-9--------------------6-6-6-6-----------|
E|-7-7-7-7-7-7-7-7--------------------4-4-4-4-----------|

A E
e|--------------------------------|
B|--------------------------------|
G|-------------9-9-9-9------------|
D|--7-7-7-7----9-9-9-9---9-9-9-9--|
A|--7-7-7-7----7-7-7-7---9-9-9-9--|
E|--5-5-5-5--------------7-7-7-7--|

e|------------------------------------------------------|
B|------------------------------------------------------|
G|------------------------------------------------------|
D|-9-9-9-9-9-9-9-9--------------------6-6-6-6-----------|
A|-9-9-9-9-9-9-9-9--------------------6-6-6-6-----------|
E|-7-7-7-7-7-7-7-7--------------------4-4-4-4-----------|

A E
e|--------------------------------|
B|--------------------------------|
G|-------------9-9-9-9------------|
D|--7-7-7-7----9-9-9-9---9-9-9-9--|
A|--7-7-7-7----7-7-7-7---9-9-9-9--|
E|--5-5-5-5--------------7-7-7-7--|

e|-----------------|
B|-----------------|
G|------9----------|
D|-7----9---9------|
A|-7----7---9------|
E|-5--------7------|

e|-----------------|
B|-----------------|
G|------9----------|
D|-7----9---9------|
A|-7----7---9------|
E|-5--------7------|

e|----------------------|
B|----------------------|
G|----------------------|
D|--9-9-9-9-8-9-8-9-8---|
A|--9-9-9-9-8-9-8-9-8---|
E|--7-7-7-7-6-7-6-7-6---|

Db
e|---------------------------------|
B|---------------------------------|
G|------------6-6-6-6---9-9-9-9----|
D|--9-9-9-9---6-6-6-6---9-9-9-9----|
A|--9-9-9-9---4-4-4-4---7-7-7-7----|
E|--7-7-7-7------------------------|


tekst
Friendship is rare,
Do you know what I'm sayin' to you?
Friendship is rare.
My derriere,
When you find out much later
That they don't really care.
It's rare to me, can't you see?
It's rare to me, can't you see?

Oh shit there's the fair,
Could you hand me that shotgun buddy,
Also that chair?
We're fighting a bear
Now your life's in grave danger
And you don't even care.
It's rare to me, can't you see?
It's rare to me, can't you see?
It's rare to me,
Say a prayer for me,
'Cause it's rare to be
In Tenacious D.

Friends will be friends
They're running naked in the sand,
Friends holding hands
Will someday surely form a band,
Friends will be friends
They say that friends are friends
To the bitter end.
Long-as-there's-a-record-deal-we'll-always-be-friends!
Long-as-there's-a-record-deal-we'll-always-be-friends!

Friends will be friends
They're running naked in the sand,
Friends holding hands
Will someday surely form a band,
Friends will be friends
They say that friends are friends
To the bitter end.
Long-as-there's-a-record-deal-we'll-always-be-friends!
Long as there's a record deal we'll always be friends, yeah

ProTabs promo.jpg

Onbeperkt en gratis toegang tot alle 25.000
Tabs & Chords en direct meespelen met

Artiest Liedje

...

Gitaarakkoorden tenacious d - friendship

Dankzij de bladmuziek op deze pagina wordt het een stuk makkelijker om met de gitaar mee te spelen met friendship van tenacious d De ProTabs van Gitaartabs worden door onze professionele gitaardocenten samengesteld. De tabs en chords zijn door leden zelf geplaatst. Deze undefined van tenacious d met friendship is voor je geschreven door gitaartabs

Tabs & Chords van tenacious d - friendship

Bij de ProTabs delen we niet alleen de tablatuur maar ook de speelwijze van friendship Met een beetje gitaar ervaring moet je dit gitaarliedje zeker kunnen spelen, maar als het niet lukt zijn we er altijd om je te helpen. Door een gratis account aan te maken krijg je niet alleen toegang tot deze chords ,akkoorden & tabs van friendship maar kun je ook onbeperkt meespelen met een van de meer dan 25.000 andere tabs & chords in onze database.

Plaats opmerking

Verstuur

Beoordeel deze song

Rate UsDon’t love itNot greatGoodGreatLove itRate Us

Bedankt voor je beoordeling!