Empty apartment

Gitaarliedjes, tabs & akkoorden (chords) empty apartment - yellowcard

Songtype: Chords

arrow&v

Markeer als favoriet

Favoriet

Gemarkeerd als favoriet

Capo:

0

yellowcard

yellowcard

Song
Album
Categorie

empty apartment

Downloads
543
Niveau
2

Geplaatst door
gilerakevie
ProTabs-promo.jpg

Kevin Bruin

Yellowcard - Empty apartment

Verse 1:
Am
Call me out
C
You stayed inside
G
One you love
D
Is where you hide
Am C
Shot me down, as I flew by
G
Crash and burn
D F Fm
I think somethimes you forget where the heart is
Am C
Answer now, to these questions
G D
Let her go, learn a lesson
Am C
Its not me, you're not listening now
G D
Can't you see somethings missing
F Fm
You forget where the heart is

Chorus:
C C*
Take you away from that empty apartment
Am F
You stay and i forget where the heart is
C C* Am F
Someday if ever you' love me you'd say it' s okay

Solo:

e-----------------------------------------------------------------------------------------|
B----------------------------------------------------------------------------------------|
G-----------------------------------------------------------------------------------------|
D--12-10-10-12---12-10-12-10---10-12-14---14-12-14-21---12-10|
A---------------------------------------12-------------------------------------------|
E---------------------------------------------------------------------------------------|

e------------------------------------------------------------------------------------|
B-------------------------------------------------------------------------------------|
G------12------------------------------------------------------------------------|
D--12b-----12-10-12--10--------10-10-10-9-------------------------------|
A--------------------------------10/12---------------10-10/12------------------|
E---------------------------------------------------------------------------------------|

Verse 2:
Am C
Waking up, from this nightmare
G D
How's your life, what's it like there
Am C
Is it al what you want it to be
G D
Does it hurt when you think about me
F Fm
And how broken my heart is

(Chorus:)

Bridge:
C C*
Its okay to be angry and never let go
Am F
It only gets harder the more that you know
C C*
When you get lonely if no one's around
Am F
You know that ill catch you when you're falling down
C C*
We came together but you left allone
Am F
And i know how it feels to walk out on your own
C C*
Maybe someday I will see you again
Am F
And you'll look me in my eyes and call me your friend

C, C*, Am, F

C, C*, Am, F

(Chorus:)

Outro:
C C* Am F
It's okay
C C* Am F
It's okay


Am C G D F Fm C*
e-0-|-0-|-3-|-3-|-1-|-1-|-0-|
B-1-|-1-|-3-|-2-|-1-|-1-|-1-|
G-2-|-0-|-0-|-3-|-2-|-1-|-0-|
D-2-|-2-|-0-|-0-|-3-|-3-|-0-|
A-0-|-3-|-2-|-0-|-0-|-3-|-3-|
E-0-|-0-|-3-|-0-|-0-|-1-|-0-|

ProTabs promo.jpg

Onbeperkt en gratis toegang tot alle 25.000
Tabs & Chords en direct meespelen met

Artiest Liedje

...

Gitaarakkoorden yellowcard - empty apartment

Dankzij de bladmuziek op deze pagina wordt het een stuk makkelijker om met de gitaar mee te spelen met empty apartment van yellowcard De ProTabs van Gitaartabs worden door onze professionele gitaardocenten samengesteld. De tabs en chords zijn door leden zelf geplaatst. Deze undefined van yellowcard met empty apartment is voor je geschreven door gilerakevie

Tabs & Chords van yellowcard - empty apartment

Bij de ProTabs delen we niet alleen de tablatuur maar ook de speelwijze van empty apartment Met een beetje gitaar ervaring moet je dit gitaarliedje zeker kunnen spelen, maar als het niet lukt zijn we er altijd om je te helpen. Door een gratis account aan te maken krijg je niet alleen toegang tot deze chords ,akkoorden & tabs van empty apartment maar kun je ook onbeperkt meespelen met een van de meer dan 25.000 andere tabs & chords in onze database.

Plaats opmerking

Verstuur

Beoordeel deze song

Rate UsDon’t love itNot greatGoodGreatLove itRate Us

Bedankt voor je beoordeling!