Not enough (intro)

Gitaarliedjes, tabs & akkoorden (chords) Not enough (intro) - 3 doors down

Songtype: Tab

arrow&v

Markeer als favoriet

Favoriet

Gemarkeerd als favoriet

Capo:

0

3 doors down

3 doors down

Song
Album
Categorie

Not enough (intro)

better life

Downloads
77
Niveau
2
Geplaatst door
sparretak
ProTabs-promo.jpg


E E E E E E E E E E E E E E E E
E||--------------------------|--------------------------|
B||--------------------------|--------------------------|
G||--------0--------0--------|--0--------0--------0-----|
D||-----2--------2--------2--|--------2--------2-----2--|
A||--0--------3--------------|--------------------------|
E||--------------------1-----|-----3--------3-----------|


E E E E E E E E E E E E E E E E
--------------------------|--------------------------|
--------------------------|--------------------------|
--------0--------0--------|--0--------0--------0-----|
-----2--------2--------2--|--------2--------2-----2--|
--0--------3--------------|--------------------------|
--------------------1-----|-----3--------3-----------|


E E E E E E E E E E E E E E E E
--------------------------|--------------------------|
--------------------------|--------------------------|
--------0--------0--------|--0--------0--------0-----|
-----2--------2--------2--|--------2--------2-----2--|
--0--------3--------------|--------------------------|
--------------------1-----|-----3--------3-----------|


E E E E E E E E E E E E E E E E
--------------------------|--------------------------|
--------------------------|--------------------------|
--------0--------0--------|--0--------0--------0-----|
-----2--------2--------2--|--------2--------2-----2--|
--0--------3--------------|--------------------------|
--------------------1-----|-----3--------3-----------|


E E E E E E E E E E E E E E E E
--------------------------|--------------------------|
--------------------------|--------------------------|
--------0--------0--------|--0--------0--------0-----|
-----2--------2--------2--|--------2--------2-----2--|
--0--------3--------------|--------------------------|
--------------------1-----|-----3--------3-----------|


E E E E E E E E E E E E E E E E
--------------------------|--------------------------|
--------------------------|--------------------------|
--------0--------0--------|--0--------0--------0-----|
-----2--------2--------2--|--------2--------2-----2--|
--0--------3--------------|--------------------------|
--------------------1-----|-----3--------3-----------|


E E E E E E E E E E E E E E E E E E E E E E Q
--------------------------|--------------------------|-------------------------|
--------------------------|--------------------------|-------------------------|
--------0--------0--------|--0--------0--------0-----|--------0--------0-------|
-----2--------2--------2--|--------2--------2-----2--|-----2--------2----------|
--0--------3--------------|--------------------------|--0--------3-------------|
--------------------1-----|-----3--------3-----------|--------------------1----|

ProTabs promo.jpg

Onbeperkt en gratis toegang tot alle 25.000
Tabs & Chords en direct meespelen met

Artiest Liedje

...

Gitaarakkoorden 3 doors down - Not enough (intro)

Dankzij de bladmuziek op deze pagina wordt het een stuk makkelijker om met de gitaar mee te spelen met Not enough (intro) van 3 doors down De ProTabs van Gitaartabs worden door onze professionele gitaardocenten samengesteld. De tabs en chords zijn door leden zelf geplaatst. Deze undefined van 3 doors down met Not enough (intro) is voor je geschreven door sparretak

Tabs & Chords van 3 doors down - Not enough (intro)

Bij de ProTabs delen we niet alleen de tablatuur maar ook de speelwijze van Not enough (intro) Met een beetje gitaar ervaring moet je dit gitaarliedje zeker kunnen spelen, maar als het niet lukt zijn we er altijd om je te helpen. Door een gratis account aan te maken krijg je niet alleen toegang tot deze tab ,akkoorden & tabs van Not enough (intro) maar kun je ook onbeperkt meespelen met een van de meer dan 25.000 andere tabs & chords in onze database.

Plaats opmerking

Beoordeel deze song

Rate UsDon’t love itNot greatGoodGreatLove itRate Us

Bedankt voor je beoordeling!