From yesterday

Gitaarliedjes, tabs & akkoorden (chords) From yesterday - 30 seconds to mars

Songtype: Tab

arrow&v

Markeer als favoriet

Favoriet

Gemarkeerd als favoriet

Capo:

0

30 seconds to mars

30 seconds to mars

Song
Album
Categorie

From yesterday

Downloads
1280
Niveau
2
beautifulllie

Geplaatst door
gitaartabs
ProTabs-promo.jpg

30 Seconds To Mars

From Yesterday

Tuning:Eb,Ab,Db,Gb,Bb,Eb

intro piano/fade in guitar
Eb|--------------------------------------------------------------------------|
Bb|--p-----------------------------------------------------------------------|
Gb|--i-----------------------------------------------------------------------|
Db|--a--dan-------9----9----9----9---9----9----9----9----9----9--------------|
Ab|--n---------777--777--777--777-777--666--666--666--666--666---------------|
Eb|--o-----------------------------------------------------------------------|

refrein (1:01) 2x
Eb|---------------------------------------------------------------------------|
Bb|---------------------------------------------------------------------------|
Gb|----------------------------------------------------9999999999999999-------|
Db|-9999999999999999-4444444444444444-6666666666666666-9999999999999999-------|
Ab|-9999999999999999-4444444444444444-6666666666666666-7777777777777777-------|
Eb|-7777777777777777-2222222222222222-4444444444444444------------------------|

couplet (1:31) 2x
Eb|---------------------------------------------------------------------------|
Bb|---------------------------------------------------------------------------|
Gb|---------------------------------------------------------------------------|
Db|----9----9----9----9----9----9----9----9----9----9-------------------------|
Ab|-777--777--777--777--777--666--666--666--666--666--------------------------|
Eb|---------------------------------------------------------------------------|

Na couplet (1:45) 2x
Eb|---------------------------------------------------------------------------|
Bb|---------------------------------------------------------------------------|
Gb|---------------------------------------------------------------------------|
Db|---------------------------------------------------------------------------|
Ab|-777777-77777~-666666-66666~-----------------------------------------------|
Eb|---------------------------------------------------------------------------|
...... .... ...... ....

refrein (2:00)
Eb|---------------------------------------------------------------------------|
Bb|---------------------------------------------------------------------------|
Gb|----------------------------------------------------9999999999999999-------|
Db|-9999999999999999-4444444444444444-6666666666666666-9999999999999999-------|
Ab|-9999999999999999-4444444444444444-6666666666666666-7777777777777777-------|
Eb|-7777777777777777-2222222222222222-4444444444444444------------------------|

brug (2:28)
Eb|---------------------------------------------------------------------------|
Bb|---------------------------------------------------------------------------|
Gb|-11111111111111111111111111111111------------------------------------------|
Db|--x-x-x-x-x-x-x-x-x-x-x-x-x-x-x-x------------------------------------------|
Ab|--9-9-9-9-9-9-9-9-9-9-9-9-9-9-9-9------------------------------------------|
Eb|---------------------------------------------------------------------------|


Eb|------------------------------------------------------------|
Bb|------------------------------------------------------------|
Gb|-----88-9-11--8888-9-11------99--88-------------------------|
Db|-99--xx-x-x---xxxx-x-x---99--xx--xx-------3-keer-spelen-----|
Ab|-99--66-7-9---6666-7-9---99--77--66-------------------------|
Eb|-77----------------------77---------------------------------|

Eb|----------------------------------------------------|
Bb|----------------------------------------------------|
Gb|-----------88-9-11---1111111111111--13-13-13-13-13--|
Db|-dan---99--xx-x-x----x-x-x-x-x-x-x--x--x--x--x--x---|
Ab|-------99--66-7-9----9-9-9-9-9-9-9--11-11-11-11-11--|
Eb|-------77-------------------------------------------|

Chorus (3:00) 4x
Eb|----------------------------------------------------------------------|
Bb|----------------------------------------------------------------------|
Gb|----------------------------------------------------9999999999999999--|
Db|-9999999999999999-4444444444444444-6666666666666666-9999999999999999--|
Ab|-9999999999999999-4444444444444444-6666666666666666-7777777777777777--|
Eb|-7777777777777777-2222222222222222-4444444444444444-------------------|

Eb|------------------------------------------|
Bb|------------------------------------------|
Gb|---------1111111111111111111111111111111--|
Db|---------1111111111111111111111111111111--|
Ab|---------9-9-9-9-9-9-9-9-9-9-9-9-9-9-9-9--|
Eb|------------------------------------------|

Outro (4:00)
e|-----------------------------|
B|-----------------------------|
G|-----88-9-11--8888-9-11------|
D|-77--xx-x-x---xxxx-x-x---99--|
A|-77--66-7-9---6666-7-9---99--|
E|-99----------------------77--|



Tekst:

From Yesterday
He's a stranger to some
And a vision to none
He can never get enough,
Get enough of the one

For a fortune he'd quit
But it's hard to admit
How it ends and begins
On his face is a map of the world
(A map of the world)
On his face is a map of the world
(A map of the world)
From yesterday, it's coming!
From yesterday, the fear!
From yesterday, it calls him
But he doesn't want to read the message here

On a mountain he sits, not of gold but of shit
through the blood he can look, see the life that he took
From a council of one
He'll decide when he's done with the innocent

On his face is a map of the world
(A map of the world)
On his face is a map of the world
(A map of the world)

From yesterday, it's coming!
From yesterday, the fear!
From yesterday, it calls him
But he doesn't want to read the message here
But he doesn't want to read the message here
But he doesn't want to read the message here

On his face is a map of the world

From yesterday, it's coming!
From yesterday, the fear!
From yesterday, it calls him
But he doesn't want to read the message here
From yesterday,
From yesterday,
From yesterday, the fear
From yesterday,
From yesterday
But he doesn't want to read the message here
But he doesn't want to read the message here
But he doesn't want to read the message here

ProTabs promo.jpg

Onbeperkt en gratis toegang tot alle 25.000
Tabs & Chords en direct meespelen met

Artiest Liedje

...

Gitaarakkoorden 30 seconds to mars - From yesterday

Dankzij de bladmuziek op deze pagina wordt het een stuk makkelijker om met de gitaar mee te spelen met From yesterday van 30 seconds to mars De ProTabs van Gitaartabs worden door onze professionele gitaardocenten samengesteld. De tabs en chords zijn door leden zelf geplaatst. Deze undefined van 30 seconds to mars met From yesterday is voor je geschreven door gitaartabs

Tabs & Chords van 30 seconds to mars - From yesterday

Bij de ProTabs delen we niet alleen de tablatuur maar ook de speelwijze van From yesterday Met een beetje gitaar ervaring moet je dit gitaarliedje zeker kunnen spelen, maar als het niet lukt zijn we er altijd om je te helpen. Door een gratis account aan te maken krijg je niet alleen toegang tot deze tab ,akkoorden & tabs van From yesterday maar kun je ook onbeperkt meespelen met een van de meer dan 25.000 andere tabs & chords in onze database.

Plaats opmerking

Verstuur

Beoordeel deze song

Rate UsDon’t love itNot greatGoodGreatLove itRate Us

Bedankt voor je beoordeling!