Kill

Gitaarliedjes, tabs & akkoorden (chords) Kill - 30 seconds to mars

Songtype: Tab

arrow&v

Markeer als favoriet

Favoriet

Gemarkeerd als favoriet

Capo:

0

30 seconds to mars

30 seconds to mars

Song
Album
Categorie

Kill

Downloads
141
Niveau
2

Geplaatst door
kevin
ProTabs-promo.jpg

Kevin Bruin

30 Seconds To Mars - Kill

Verse 1

E|-------------------------------------------------------------------------|
B|-------------------------------------------------------------------------|
G|------0--------0--------0--------0---------0--------0--------0--------0--|
D|-5--5---5-5--5---5-5--5---5-5--5---7--7--7---7-7--7---7-7--7---7-7--7---7|
A|-3--3-----3--3-----3--3-----3--3------5--5-----5--5-----5--5-----5--5----|
E|-------------------------------------------------------------------------|

E|-------------------------------------------------------------------------|
B|-------------------------------------------------------------------------|
G|------0--------0--------0--------0---------0--------0--------0--------0--|
D|-9--9---9-9--9---9-9--9---9-9--9---9--4--4---4-4--4---4-4--4---4-4--4---2|
A|-7--7-----7--7-----7--7-----7--7------2--2-----2--2-----2--2-----2--2----|
E|-------------------------------------------------------------------------|

E|-------------------------------------------------------------------------|
B|-------------------------------------------------------------------------|
G|------0--------0--------0--------0---------0--------0--------0--------0--|
D|-5--5---5-5--5---5-5--5---5-5--5---7--7--7---7-7--7---7-7--7---7-7--7---7|
A|-3--3-----3--3-----3--3-----3--3------5--5-----5--5-----5--5-----5--5----|
E|-------------------------------------------------------------------------|

E|-------------------------------------------------------------------------|
B|-------------------------------------------------------------------------|
G|------0--------0--------0--------0---------0--------0--------0--------0--|
D|-9--9---9-9--9---9-9--9---9-9--9---9--4--4---4-4--4---4-4--4---4-4--4---2|
A|-7--7-----7--7-----7--7-----7--7------2--2-----2--2-----2--2-----2--2----|
E|-------------------------------------------------------------------------|

Chorus:
C D
E|-------------------------------------------------------------------------|
B|-------------------------------------------------------------------------|
G|-5-5-5-5-5-5-5-5-5-5-5-5-5-5-5-5-5-5-7-7-7-7-7-7-7-7-7-7-7-7-7-7-7-7-7-7-|
D|-5-5-5-5-5-5-5-5-5-5-5-5-5-5-5-5-5-5-7-7-7-7-7-7-7-7-7-7-7-7-7-7-7-7-7-7-|
A|-3-3-3-3-3-3-3-3-3-3-3-3-3-3-3-3-3-3-5-5-5-5-5-5-5-5-5-5-5-5-5-5-5-5-5-5-|
E|-------------------------------------------------------------------------|
E B
E|-------------------------------------------------------------------------|
B|-------------------------------------------------------------------------|
G|-9-9-9-9-9-9-9-9-9-9-9-9-9-9-9-9-9-9-4-4-4-4-4-4-4-4-4-4-4-4-4-4-4-4-4-4-|
D|-9-9-9-9-9-9-9-9-9-9-9-9-9-9-9-9-9-9-4-4-4-4-4-4-4-4-4-4-4-4-4-4-4-4-4-4-|
A|-7-7-7-7-7-7-7-7-7-7-7-7-7-7-7-7-7-7-2-2-2-2-2-2-2-2-2-2-2-2-2-2-2-2-2-2-|
E|-------------------------------------------------------------------------|

Verse 2:

E|-------------------------------------------------------------------------|
B|-------------------------------------------------------------------------|
G|-h12p9-----------h12p9-----------h12p9------------h12p9------------------|
D|------h10p9h10p9------h10p9h10p9------h10p9h10p9-------h10p9h10p9--------|
A|-------------------------------------------------------------------------|
E|-------------------------------------------------------------------------|

E|-------------------------------------------------------------------------|
B|-------------------------------------------------------------------------|
G|--------h12----------h12----------h12----------h12-----------------------|
D|-9h10p9----9--9h10p9----9--9h10p9----9--9h10p9---------------------------|
A|-------------------------------------------------------------------------|
E|-------------------------------------------------------------------------|

E|-------------------------------------------------------------------------|
B|-------------------------------------------------------------------------|
G|-h12p9-----------h12p9-----------h12p9------------h12p9------------------|
D|------h10p9h10p9------h10p9h10p9------h10p9h10p9-------h10p9h10p9--------|
A|-------------------------------------------------------------------------|
E|-------------------------------------------------------------------------|

E|-------------------------------------------------------------------------|
B|----------------------------------h10----------h12-----------------------|
G|--------h12----------h12-------------------------------------------------|
D|-9h10p9----9--9h10p9----9--9h10p9----9--9h10p9---------------------------|
A|-------------------------------------------------------------------------|
E|-------------------------------------------------------------------------|

E|-------------------------------------------------------------------------|
B|-------------------------------------------------------------------------|
G|-h12p9-----------h12p9-----------h12p9------------h12p9------------------|
D|------h10p9h10p9------h10p9h10p9------h10p9h10p9-------h10p9h10p9--------|
A|-------------------------------------------------------------------------|
E|-------------------------------------------------------------------------|

E|-------------------------------------------------------------------------|
B|-------------------------------------------------------------------------|
G|--------h12-----------h12-----------h12-----------h12--------------------|
D|-9h10p9----9--9h10p9----9--9h10p9----9--9h10p9---------------------------|
A|-------------------------------------------------------------------------|
E|-------------------------------------------------------------------------|

E|-------------------------------------------------------------------------|
B|-------------------------------------------------------------------------|
G|-h12p9-----------h12p9-----------h12p9------------h12p9------------------|
D|------h10p9h10p9------h10p9h10p9------h10p9h10p9-------h10p9h10p9--------|
A|-------------------------------------------------------------------------|
E|-------------------------------------------------------------------------|

E|------------------------------------------------------------------------|
B|----------------------------------h10----------h12----------------------|
G|--------h12----------h12------------------------------------------------|
D|-9h10p9----9--9h10p9----9--9h10p9----9--9h10p9--------------------------|
A|------------------------------------------------------------------------|
E|------------------------------------------------------------------------|

Chorus 2

C D
E|-------------------------------------------------------------------------|
B|-------------------------------------------------------------------------|
G|-5-5-5-5-5-5-5-5-5-5-5-5-5-5-5-5-5-5-7-7-7-7-7-7-7-7-7-7-7-7-7-7-7-7-7-7-|
D|-5-5-5-5-5-5-5-5-5-5-5-5-5-5-5-5-5-5-7-7-7-7-7-7-7-7-7-7-7-7-7-7-7-7-7-7-|
A|-3-3-3-3-3-3-3-3-3-3-3-3-3-3-3-3-3-3-5-5-5-5-5-5-5-5-5-5-5-5-5-5-5-5-5-5-|
E|-------------------------------------------------------------------------|

E B
E|-------------------------------------------------------------------------|
B|-------------------------------------------------------------------------|
G|-9-9-9-9-9-9-9-9-9-9-9-9-9-9-9-9-9-9-4-4-4-4-4-4-4-4-4-4-4-4-4-4-4-4-4-4-|
D|-9-9-9-9-9-9-9-9-9-9-9-9-9-9-9-9-9-9-4-4-4-4-4-4-4-4-4-4-4-4-4-4-4-4-4-4-|
A|-7-7-7-7-7-7-7-7-7-7-7-7-7-7-7-7-7-7-2-2-2-2-2-2-2-2-2-2-2-2-2-2-2-2-2-2-|
E|-------------------------------------------------------------------------|

C D
E|-------------------------------------------------------------------------|
B|-------------------------------------------------------------------------|
G|-5-5-5-5-5-5-5-5-5-5-5-5-5-5-5-5-5-5-7-7-7-7-7-7-7-7-7-7-7-7-7-7-7-7-7-7-|
D|-5-5-5-5-5-5-5-5-5-5-5-5-5-5-5-5-5-5-7-7-7-7-7-7-7-7-7-7-7-7-7-7-7-7-7-7-|
A|-3-3-3-3-3-3-3-3-3-3-3-3-3-3-3-3-3-3-5-5-5-5-5-5-5-5-5-5-5-5-5-5-5-5-5-5-|
E|-------------------------------------------------------------------------|

E B
E|-------------------------------------------------------------------------|
B|-------------------------------------------------------------------------|
G|-9-9-9-9-9-9-9-9-9-9-9-9-9-9-9-9-9-9-4-4-4-4-4-4-4-4-4-4-4-4-4-4-4-4-4-4-|
D|-9-9-9-9-9-9-9-9-9-9-9-9-9-9-9-9-9-9-4-4-4-4-4-4-4-4-4-4-4-4-4-4-4-4-4-4-|
A|-7-7-7-7-7-7-7-7-7-7-7-7-7-7-7-7-7-7-2-2-2-2-2-2-2-2-2-2-2-2-2-2-2-2-2-2-|
E|-------------------------------------------------------------------------|

Bridge:

A B E
E|-------------------------------------------------------------------------|
B|-------------------------------------------------------------------------|
G|-2-2-2-2-2-2-4-4-4-4-4-4-9-9-9-9-9-9-9-9-9-9-9-9-9-9-9-9-9-9-9-9-9-9-9-9-|
D|-2-2-2-2-2-2-4-4-4-4-4-4-9-9-9-9-9-9-9-9-9-9-9-9-9-9-9-9-9-9-9-9-9-9-9-9-|
A|-0-0-0-0-0-0-2-2-2-2-2-2-7-7-7-7-7-7-7-7-7-7-7-7-7-7-7-7-7-7-7-7-7-7-7-7-|
E|-------------------------------------------------------------------------|

C D E
E|-------------------------------------------------------------------------|
B|-------------------------------------------------------------------------|
G|-5-5-5-5-5-5-5-5-5-5-5-5-7-7-7-7-7-7-7-7-7-7-7-7-9-9-9-9-9-9-9-9-9-9-9-9-|
D|-5-5-5-5-5-5-5-5-5-5-5-5-7-7-7-7-7-7-7-7-7-7-7-7-9-9-9-9-9-9-9-9-9-9-9-9-|
A|-3-3-3-3-3-3-3-3-3-3-3-3-5-5-5-5-5-5-5-5-5-5-5-5-7-7-7-7-7-7-7-7-7-7-7-7-|
E|-------------------------------------------------------------------------|

C D E
E|-------------------------------------------------------------------------|
B|-------------------------------------------------------------------------|
G|-5-5-5-5-5-5-5-5-5-5-5-5-7-7-7-7-7-7-7-7-7-7-7-7-9-9-9-9-9-9-9-9-9-9-9-9-|
D|-5-5-5-5-5-5-5-5-5-5-5-5-7-7-7-7-7-7-7-7-7-7-7-7-9-9-9-9-9-9-9-9-9-9-9-9-|
A|-3-3-3-3-3-3-3-3-3-3-3-3-5-5-5-5-5-5-5-5-5-5-5-5-7-7-7-7-7-7-7-7-7-7-7-7-|
E|-------------------------------------------------------------------------|

C D E
E|-------------------------------------------------------------------------|
B|-------------------------------------------------------------------------|
G|-5-5-5-5-5-5-5-5-5-5-5-5-7-7-7-7-7-7-7-7-7-7-7-7-9-9-9-9-9-9-9-9-9-9-9-9-|
D|-5-5-5-5-5-5-5-5-5-5-5-5-7-7-7-7-7-7-7-7-7-7-7-7-9-9-9-9-9-9-9-9-9-9-9-9-|
A|-3-3-3-3-3-3-3-3-3-3-3-3-5-5-5-5-5-5-5-5-5-5-5-5-7-7-7-7-7-7-7-7-7-7-7-7-|
E|-------------------------------------------------------------------------|

Break:

E|-------------------------------------------------------------------------|
B|-------------------------------------------------------------------------|
G|-------------------------------------------------------------------------|
D|-------------------------------------------------------------------------|
A|-7-7-7-7-7-7-7-7-7-7-7-7-7-7-7-7-7-7-7-7-7-7-7-7-7-7-7-7-7-7-7-7-7-7-7-7-|
E|-------------------------------------------------------------------------|

E|-------------------------------------------------------------------------|
B|-------------------------------------------------------------------15----|
G|-16-16-16-16-16-16-14-14-14-14-14-12-12-12-12-12-16-14-16-14-16-14----14-|
D|-------------------------------------------------------------------------|
A|-14-14-14-14-14-14-12-12-12-12-12-10-10-10-10-10-------------------------|
E|-------------------------------------------------------------------------|


Chorus: 2x

Outro:

E|-------------------------------------------------------------------------|
B|-------------------------------------------------------------------------|
G|-h12p9-----------h12p9-----------h12p9------------h12p9------------------|
D|------h10p9h10p9------h10p9h10p9------h10p9h10p9-------h10p9h10p9--------|
A|-------------------------------------------------------------------------|
E|-------------------------------------------------------------------------|

E|-------------------------------------------------------------------------|
B|-------------------------------------------------------------------------|
G|--------h12----------h12----------h12----------h12-----------------------|
D|-9h10p9----9--9h10p9----9--9h10p9----9--9h10p9---------------------------|
A|-------------------------------------------------------------------------|
E|-------------------------------------------------------------------------|

E|-------------------------------------------------------------------------|
B|-------------------------------------------------------------------------|
G|-h12p9-----------h12p9-----------h12p9------------h12p9------------------|
D|------h10p9h10p9------h10p9h10p9------h10p9h10p9-------h10p9h10p9--------|
A|-------------------------------------------------------------------------|
E|-------------------------------------------------------------------------|

E|-------------------------------------------------------------------------|
B|----------------------------------h10----------h12-----------------------|
G|--------h12----------h12-------------------------------------------------|
D|-9h10p9----9--9h10p9----9--9h10p9----9--9h10p9---------------------------|
A|-------------------------------------------------------------------------|
E|-------------------------------------------------------------------------|

ProTabs promo.jpg

Onbeperkt en gratis toegang tot alle 25.000
Tabs & Chords en direct meespelen met

Artiest Liedje

...

Gitaarakkoorden 30 seconds to mars - Kill

Dankzij de bladmuziek op deze pagina wordt het een stuk makkelijker om met de gitaar mee te spelen met Kill van 30 seconds to mars De ProTabs van Gitaartabs worden door onze professionele gitaardocenten samengesteld. De tabs en chords zijn door leden zelf geplaatst. Deze undefined van 30 seconds to mars met Kill is voor je geschreven door kevin

Tabs & Chords van 30 seconds to mars - Kill

Bij de ProTabs delen we niet alleen de tablatuur maar ook de speelwijze van Kill Met een beetje gitaar ervaring moet je dit gitaarliedje zeker kunnen spelen, maar als het niet lukt zijn we er altijd om je te helpen. Door een gratis account aan te maken krijg je niet alleen toegang tot deze tab ,akkoorden & tabs van Kill maar kun je ook onbeperkt meespelen met een van de meer dan 25.000 andere tabs & chords in onze database.

Plaats opmerking

Verstuur

Beoordeel deze song

Rate UsDon’t love itNot greatGoodGreatLove itRate Us

Bedankt voor je beoordeling!