A team theme

Gitaarliedjes, tabs & akkoorden (chords) A team theme - a team

Songtype: Tab

arrow&v

Markeer als favoriet

Favoriet

Gemarkeerd als favoriet

Capo:

0

a team

a team

Song
Album
Categorie

A team theme

Downloads
3155
Niveau
2
a team

Geplaatst door
gitaartabs
ProTabs-promo.jpg

E----------------------------------------------------------------
B----------------------------------------------------------------
G----------------------------------------------------------------
D-7-7--5--7--5--7--5-5-5--12--10--7-7--5--7--5--3-3-3--5---------
A---------------------------------------------------------------
E----------------------------------------------------------------


maar je kan ook dit spelen:


E----------------------------------------------------------------
B----------------------------------------------------------------
G-------------------------7--5-----------------------------------
D-7-7--5--7--5--7--5-5-5--7--3--7-7--5--7--5--3-3-3--5-----------
A-5-5--3--5--3--5--3-3-3--5--3--5-5--3--5--3--1-1-1--3-----------
E-5-5--3--5--3--5--3-3-3--------5-5--3--5--3--1-1-1--3--3



ProTabs promo.jpg

Onbeperkt en gratis toegang tot alle 25.000
Tabs & Chords en direct meespelen met

Artiest Liedje

...

Gitaarakkoorden a team - A team theme

Dankzij de bladmuziek op deze pagina wordt het een stuk makkelijker om met de gitaar mee te spelen met A team theme van a team De ProTabs van Gitaartabs worden door onze professionele gitaardocenten samengesteld. De tabs en chords zijn door leden zelf geplaatst. Deze undefined van a team met A team theme is voor je geschreven door gitaartabs

Tabs & Chords van a team - A team theme

Bij de ProTabs delen we niet alleen de tablatuur maar ook de speelwijze van A team theme Met een beetje gitaar ervaring moet je dit gitaarliedje zeker kunnen spelen, maar als het niet lukt zijn we er altijd om je te helpen. Door een gratis account aan te maken krijg je niet alleen toegang tot deze tab ,akkoorden & tabs van A team theme maar kun je ook onbeperkt meespelen met een van de meer dan 25.000 andere tabs & chords in onze database.

Plaats opmerking

Verstuur

Beoordeel deze song

Rate UsDon’t love itNot greatGoodGreatLove itRate Us

Bedankt voor je beoordeling!