Big gun versie 1

Gitaarliedjes, tabs & akkoorden (chords) Big gun versie 1 - ac/dc

Songtype: Tab

arrow&v

Markeer als favoriet

Favoriet

Gemarkeerd als favoriet

Capo:

10

ac/dc

ac/dc

Song
Album
Categorie

Big gun versie 1

Downloads
1225
Niveau
3
Geplaatst door
gitaartabs
ProTabs-promo.jpg

Riff A: 2x in the intro
-GITAAR 1=>-3---0----0--0-------|-----------3---0---0------------
------------------3--------3--0-|-----------------3-----3\-------
--------------------------------|--------------------------------
--2--2--<==GITAAR 2-------------|--2--2--------------------------
--2--2--------------------------|--2--2--------------------------
--0--0--------------------------|--0--0--------------------------


Riff B: (speel dit stuk elke keer opnieuw bij iedere zin van het liedje)
-----------------------------------------------------------------
-----------------------------------------------------------------
-----------------------------------------------------------------
--------0--------------------------------------------------------
------2-----0-4---0-2---0-4-----2--------------------------------
--0-0-----0-----0-----0-----0-3---3------------------------------
I'm playing on the radio
Pictures on the TV
And every man take a-what he can
Shoot 'em on the silver screen


Riff C: (het zelfde al hierboven)
-----------------------------------------------------------------
-----------------------------------------------------------------
--------0--------------------------------------------------------
------2-----0-4---0-2---0-4-----2--------------------------------
----0-----0-----0-----0-----0-3---3------------------------------
-----------------------------------------------------------------
Stickin' the law, knockin' them down
Livin' out a fantasy


Riff B met:

There's a bad man cruisin' around
In a big black limousine


Riff D:
| | | | || | | | | |
B(vii) A(v) B(vii)
Don't let it be wrong, don't let it be right

A(v) G(iii) D#/F Em
Give into spite, and double your sights



Riff A with:
Big gun -- big gun, number one
Big gun

----------------------------------- G
----------------------------------- T
----0------------------------------ R
------2--0------------------2------
--------------2P0---2-0------------ #
-------------------------3--0------ 2
Big gun, can you hit on the loon (I SAID I couldn't hear the words!)


[Riff B dubbel]


ProTabs promo.jpg

Onbeperkt en gratis toegang tot alle 25.000
Tabs & Chords en direct meespelen met

Artiest Liedje

...

Gitaarakkoorden ac/dc - Big gun versie 1

Dankzij de bladmuziek op deze pagina wordt het een stuk makkelijker om met de gitaar mee te spelen met Big gun versie 1 van ac/dc De ProTabs van Gitaartabs worden door onze professionele gitaardocenten samengesteld. De tabs en chords zijn door leden zelf geplaatst. Deze undefined van ac/dc met Big gun versie 1 is voor je geschreven door gitaartabs

Tabs & Chords van ac/dc - Big gun versie 1

Bij de ProTabs delen we niet alleen de tablatuur maar ook de speelwijze van Big gun versie 1 Met een beetje gitaar ervaring moet je dit gitaarliedje zeker kunnen spelen, maar als het niet lukt zijn we er altijd om je te helpen. Door een gratis account aan te maken krijg je niet alleen toegang tot deze tab ,akkoorden & tabs van Big gun versie 1 maar kun je ook onbeperkt meespelen met een van de meer dan 25.000 andere tabs & chords in onze database.

Plaats opmerking

Beoordeel deze song

Rate UsDon’t love itNot greatGoodGreatLove itRate Us

Bedankt voor je beoordeling!