Whole lotta rosie tab

Gitaarliedjes, tabs & akkoorden (chords) Whole lotta rosie tab - ac/dc

Songtype: Tab

arrow&v

Markeer als favoriet

Favoriet

Gemarkeerd als favoriet

Capo:

0

ac/dc

ac/dc

Song
Album
Categorie

Whole lotta rosie tab

Downloads
1075
Niveau
2

Geplaatst door
gitaartabs
ProTabs-promo.jpg

Whole Lotta Rosie
AC DC


Introduction: (2 bar count in)

A5 C5 D5 C5 A5 Verse: A5 C5 D5 C5 A5
e|---------------------------||--------------------|--------------------------||
b|---------------------------||o-------------------|-------------------------o||
g|------2--5-----7-----5--2--||----(4 beats rest)--|--2--5-----7-----5--2-----||
d|------2--5-----7-----5--2--||--------------------|--2--5-----7-----5--2-----||
a|------0--3--0--5--0--3--0--||o-------------------|--0--3--0--5--0--3--0----o||
E|---------------------------||--------------------|--------------------------||
(Play this section 10 times)


e|---------------------------|--------------------------|----------------------|
b|---------------------------|--------------------------|----------------------|
g|-----(4 beats rest)--------|-----(4 beats rest)-------|----(4 beats rest)----|
d|---------------------------|--------------------------|----------------------|
a|---------------------------|--------------------------|----------------------|
E|---------------------------|--------------------------|----------------------|


A5 C5 D5 C5 A5
e|---------------------------||-------------------------|-------------------------||
b|---------------------------||o------------------------|------------------------o||
g|------2--5-----7-----5--2--||----2--------2-----0--2--|-------------------------||
d|------2--5-----7-----5--2--||----2--------2-----0--2--|-------------------------||
a|------0--3--0--5--0--3--0--||o---0--0--0--0--0--0--0--|--0--3--0--5--0--3--0---o||
E|---------------------------||-------------------------|-------------------------||
(Play this section 4 times)

Verse 1

e|-----------------------|-----------------------|------------------------|-----------------------|
b|-----------------------|-----------------------|------------------------|-----------------------|
g|--2--------2-----0--2--|-----------------------|---2--------2-----0--2--|-----------------------|
d|--2--------2-----0--2--|-----------------------|---2--------2-----0--2--|-----------------------|
a|--0--0--0--0--0--0--0--|--0--3--0--5--0--3--0--|---0--0--0--0--0--0--0--|--0--3--0--5--0--3--0--|
E|-----------------------|-----------------------|------------------------|-----------------------|

e|-----------------------|-----------------------|------------------------|-----------------------|
b|-----------------------|-----------------------|------------------------|-----------------------|
g|--2--------2-----0--2--|-----------------------|---2--------2-----0--2--|-----------------------|
d|--2--------2-----0--2--|-----------------------|---2--------2-----0--2--|-----------------------|
a|--0--0--0--0--0--0--0--|--0--3--0--5--0--3--0--|---0--0--0--0--0--0--0--|--0--3--0--5--0--3--0--|
E|-----------------------|-----------------------|------------------------|-----------------------|

e|-----------------------|-----------------------|------------------------|-----------------------|
b|-----------------------|-----------------------|------------------------|-----------------------|
g|--2--------2-----0--2--|-----------------------|---2--------2-----0--2--|-----------------------|
d|--2--------2-----0--2--|-----------------------|---2--------2-----0--2--|-----------------------|
a|--0--0--0--0--0--0--0--|--0--3--0--5--0--3--0--|---0--0--0--0--0--0--0--|--0--3--0--5--0--3--0--|
E|-----------------------|-----------------------|------------------------|-----------------------|

e|----------------------|-----------------------|------------------------|------------------------|
b|----------------------|-----------------------|------------------------|------------------------|
g|-2--------2-----0--2--|-----------------------|---2--------2-----0--2--|-2--2--2--2--2--2--2--2-|
d|-2--------2-----0--2--|-----------------------|---2--------2-----0--2--|-2--2--2--2--2--2--2--2-|
a|-0--0--0--0--0--0--0--|--0--3--0--5--0--3--0--|---0--0--0--0--0--0--0--|-0--0--0--0--0--0--0--0-|
E|----------------------|-----------------------|------------------------|------------------------|

Chorus:

F5 F5 D5
e|-----------------------|----------------------|------------------------|-----------------------|
b|-----------------------|----------------------|----3-----3----3--------|-----------------------|
g|-----------------------|----------------------|----2-----2----2--------|-----------------------|
d|--3---3--3-------------|----(3)---------------|----0-----0----0--------|-----------------------|
a|--3---3--3-(Let Ring)--|----(3)---------------|------------------------|-----------------------|
E|--1---1--1-------------|----(1)---------------|------------------------|-----------------------|
A5 G5 A5 G5
e|-------------------3---|----------------------|---------------------3---|----------------------|
b|-------------------3---|----------------------|---------------------3---|----------------------|
g|-2--------------0--0---|----------------------|---2--------------0--0---|----------------------|
d|-2--------------0--0---|----------------------|---2--------------0--0---|----------------------|
a|-0--------------0------|----------------------|---0--------------0------|----------------------|
E|-------------------3---|----------------------|---------------------3---|----------------------|


A5 G5 G5 G5 G5 G5 G5 G5
e|-------------------3--|-----------------------|-------------------------|----------------------|
b|-------------------3--|-----------------------|------3------3------3----|---3-----3-----3------|
g|-2--------------0--0--|-----------------------|------0------0------0----|---0-----0-----0------|
d|-2--------------0--0--|-----------------------|------0------0------0----|---0-----0-----0------|
a|-0--------------0-----|-----------------------|-------------------------|----------------------|
E|-------------------3--|-----------------------|------3------2------3----|---2-----3-----4------|

e|----------------------|-----------------------|------------------------|-----------------------|
b|----------------------|-----------------------|------------------------|-----------------------|
g|-2--------2-----0--2--|-----------------------|---2--------2-----0--2--|-----------------------|
d|-2--------2-----0--2--|-----------------------|---2--------2-----0--2--|-----------------------|
a|-0--0--0--0--0--0--0--|--0--3--0--5--0--3--0--|---0--0--0--0--0--0--0--|--0--3--0--5--0--3--0--|
E|----------------------|-----------------------|------------------------|-----------------------|


Verse 2

e|----------------------|-----------------------|------------------------|-----------------------|
b|----------------------|-----------------------|------------------------|-----------------------|
g|-2--------2-----0--2--|-----------------------|---2--------2-----0--2--|-----------------------|
d|-2--------2-----0--2--|-----------------------|---2--------2-----0--2--|-----------------------|
a|-0--0--0--0--0--0--0--|--0--3--0--5--0--3--0--|---0--0--0--0--0--0--0--|--0--3--0--5--0--3--0--|
E|----------------------|-----------------------|------------------------|-----------------------|

e|----------------------|-----------------------|------------------------|-----------------------|
b|----------------------|-----------------------|------------------------|-----------------------|
g|-2--------2-----0--2--|-----------------------|---2--------2-----0--2--|-----------------------|
d|-2--------2-----0--2--|-----------------------|---2--------2-----0--2--|-----------------------|
a|-0--0--0--0--0--0--0--|--0--3--0--5--0--3--0--|---0--0--0--0--0--0--0--|--0--3--0--5--0--3--0--|
E|----------------------|-----------------------|------------------------|-----------------------|

e|----------------------|-----------------------|------------------------|-----------------------|
b|----------------------|-----------------------|------------------------|-----------------------|
g|-2--------2-----0--2--|-----------------------|---2--------2-----0--2--|-----------------------|
d|-2--------2-----0--2--|-----------------------|---2--------2-----0--2--|-----------------------|
a|-0--0--0--0--0--0--0--|--0--3--0--5--0--3--0--|---0--0--0--0--0--0--0--|--0--3--0--5--0--3--0--|
E|----------------------|-----------------------|------------------------|-----------------------|

e|----------------------|-----------------------|------------------------|------------------------|
b|----------------------|-----------------------|------------------------|------------------------|
g|-2--------2-----0--2--|-----------------------|---2--------2-----0--2--|-2--2--2--2--2--2--2--2-|
d|-2--------2-----0--2--|-----------------------|---2--------2-----0--2--|-2--2--2--2--2--2--2--2-|
a|-0--0--0--0--0--0--0--|--0--3--0--5--0--3--0--|---0--0--0--0--0--0--0--|-0--0--0--0--0--0--0--0-|
E|----------------------|-----------------------|------------------------|------------------------|


Chorus:

F5 F5 D5
e|-----------------------|----------------------|------------------------|-----------------------|
b|-----------------------|----------------------|----3-----3----3--------|-----------------------|
g|-----------------------|----------------------|----2-----2----2--------|-----------------------|
d|--3---3--3-------------|----(3)---------------|----0-----0----0--------|-----------------------|
a|--3---3--3-(Let Ring)--|----(3)---------------|------------------------|-----------------------|
E|--1---1--1-------------|----(1)---------------|------------------------|-----------------------|


A5 G5 A5 G5
e|-------------------3---|----------------------|---------------------3---|----------------------|
b|-------------------3---|----------------------|---------------------3---|----------------------|
g|-2--------------0--0---|----------------------|---2--------------0--0---|----------------------|
d|-2--------------0--0---|----------------------|---2--------------0--0---|----------------------|
a|-0--------------0------|----------------------|---0--------------0------|----------------------|
E|-------------------3---|----------------------|---------------------3---|----------------------|

A5 G5 G5 G5 G5 G5 G5 G5
e|-------------------3--|-----------------------|-------------------------|----------------------|
b|-------------------3--|-----------------------|------3------3------3----|---3-----3-----3------|
g|-2--------------0--0--|-----------------------|------0------0------0----|---0-----0-----0---5--|
d|-2--------------0--0--|-----------------------|------0------0------0----|---0-----0-----0------|
a|-0--------------0-----|-----------------------|-------------------------|----------------------|
E|-------------------3--|-----------------------|------3------2------3----|---2-----3-----4------|


Solo:

A5 ~~~~~
e|----------------------------------|--------------------------|---------------------------|
b|----------------------------------|--------------------------|---------------------------|
g|--5--5-5-5-5-5-5-5-5-5-5-5-5-5-5--|---5----------------5--5--|--5-5--5-5--5-5--5-5--5--5-|
d|----------------------------------|------7--------(7)--------|---------------------------|
a|----------------------------------|--------------------------|---------------------------|
E|----------------------------------|--------------------------|---------------------------|




~~~~~~
e|----------------------|----------------------------|-------------------------------|
b|----------------------|----------------------------|-------------------------------|
g|-----------------5-5--|--5-5--5--5-5--5-5--5--5-5--|--5-5--5--5-5-5-5-5-5-5-5\4/5--|
d|--7---------(7)-------|----------------------------|-------------------------------|
a|----------------------|----------------------------|-------------------------------|
E|----------------------|----------------------------|-------------------------------|

~~~~~ ~~~~
e|-------------------------|-------------5------|--------------------------5----|
b|-------------8-----------|-----------------8--|---5------------------------8--|
g|--7-(bend)------7-(full)------>---------------|-----7-5-7-5---7---5-----------|
d|-------------------------|--------------------|-------------7---7-------------|
a|-------------------------|--------------------|-------------------------------|
E|-------------------------|--------------------|-------------------------------|

e|----------------------------------------|---------------------------------|
b|--5---------------------8-(bend & hold for 4 beats)-----------------------|
g|----7-5-7-5---7---5---------------------|---------------------------------|
d|------------7---7-----------------------|---------------------------------|
a|----------------------------------------|---------------------------------|
E|----------------------------------------|---------------------------------|

e|-----------------7--8----|--7-----7-8-7------7-8-7------7-8-7------7-8--|
b|--8-(hold)---------------|----10---------10---------10---------10-------|
g|-------------------------|----------------------------------------------|
d|-------------------------|----------------------------------------------|
a|-------------------------|----------------------------------------------|
E|-------------------------|----------------------------------------------|

e|--7-----7-8-7------7-8-7------7-8-8-10-8------|--7------------------------------|
b|----10---------10---------10-------------10---|----9-7-5-7-5--------------------|
g|----------------------------------------------|--------------7--5-7-5\4----5----|
d|----------------------------------------------|--------------------------7----7-|
a|----------------------------------------------|---------------------------------|
E|----------------------------------------------|---------------------------------|

e|-----------------------------|------------------|----5--8--8--7---|
b|----------------13--15(bend)-|-------15 (bend)--|-----------------|
g|-----------------------------|------------------|--7--------------|
d|-----7--(7)-\4---------------|------------------|-----------------|
a|--9--------------------------|------------------|-----------------|
E|-----------------------------|------------------|-----------------|

e|--5--7--5-----5-------------------|--------------------|
b|-----------8----7-8-7-5-7-5-------|--------------------|
g|-----------------------------7-5--|--~~~~~-------(5)---|
d|----------------------------------|--------------------|
a|----------------------------------|--------------------|
E|----------------------------------|--------------------|



(Guitar 2 Cue)
~~~~~ A5 C5 D5 C5 A5
e|--------------------------|---------------------------|
b|o-------------------------|--------------------------o|
g|------5------7------5-----|-----2--5-----7-----5--2---|
d|---7------7------7-----7--|-----2--5-----7-----5--2---|
a|o-------------------------|-----0--3--0--5--0--3--0--o|
E|--------------------------|---------------------------|
(Play this section 6 times)


e|--------------------|--------------------|--------------------|--------------------|
b|--------------------|--------------------|--------------------|--------------------|
g|----5----7----5-----|----5----7----5-----|----5----7----5-----|----5----7----5-----|
d|--7---7----7-----7--|--7---7----7-----7--|--7---7----7-----7--|--7---7----7-----7--|
a|--------------------|--------------------|--------------------|--------------------|
E|--------------------|--------------------|--------------------|--------------------|



~~ ~~ ~~

e|------------------------|------------------------|------------------------|
b|------------7-----------|------------7-----------|------------7-----------|
g|-----5------7-----5-----|-----5------7-----5-----|-----5------7-----5-----|
d|--7-----7------7-----7--|--7-----7------7-----7--|--7-----7------7-----7--|
a|------------------------|------------------------|------------------------|
E|------------------------|------------------------|------------------------|


e|---------------|--5-----------------------------------|---------------------------------|
b|------------8--|----8-5----5--8----5-8-5-----5--8--5--|---5--8-5----5--8-5--8--5--------|
g|---------------|---------7------7---------7-----------|-7---------7---------------5--7--|
d|---------------|--------------------------------------|---------------------------------|
a|--(7)----------|--------------------------------------|---------------------------------|
E|---------------|--------------------------------------|---------------------------------|

~~~
e|-----5----------------------|---------------------------|--------20-----20-(bend)-|
b|-------8-5-----5------------|-------(20)------20-(bend)-|-------------------------|
g|--7---------7----7-5----7-5-|---(5)---------------------|-------------------------|
d|----------------------7-----|---------------------------|-------------------------|
a|----------------------------|---------------------------|-------------------------|
E|----------------------------|---------------------------|-------------------------|

e|--17--------------17--------------17--------|-----17--------------17--------------17--------|
b|-----20--17--20------20--17--20-------20-17-|-20-----20--17--20------20--17--20-------20-17-|
g|--------------------------------------------|-----------------------------------------------|
d|--------------------------------------------|-----------------------------------------------|
a|--------------------------------------------|-----------------------------------------------|
E|--------------------------------------------|-----------------------------------------------|

e|-----17-20-17------17-----------------------|17----------17----------17---------17------------|
b|-20------------20-----20-17-----17-20-17----|17-20-17----17-20--17---17--20--17-17--20--17----|
g|-----------------------------19----------19-|---------19-----------19----------19----------19-|
d|--------------------------------------------|-------------------------------------------------|
a|--------------------------------------------|-------------------------------------------------|
E|--------------------------------------------|-------------------------------------------------|


e|--17----------17------------17\--|----------------------------------|-------------------|
b|--17-20-17----17-20--17-----17\--|----------------------------------|--20-(full bend)---|
g|-----------19-----------19-------|--7-------------------------------|-------------------|
d|---------------------------------|-----5--7--5--7-----5-(5)---------|-------------------|
a|---------------------------------|-----------------7----------0--0--|-------------------|
E|---------------------------------|----------------------------------|-------------------|


Chorus:

F5 F5 D5
e|-----------------------|----------------------|------------------------|-----------------------|
b|-----------------------|----------------------|----3-----3----3--------|-----------------------|
g|-----------------------|----------------------|----2-----2----2--------|-----------------------|
d|--3---3--3-------------|----(3)---------------|----0-----0----0--------|-----------------------|
a|--3---3--3-(Let Ring)--|----(3)---------------|------------------------|-----------------------|
E|--1---1--1-------------|----(1)---------------|------------------------|-----------------------|
A5 G5 A5 G5
e|-------------------3---|----------------------|---------------------3---|----------------------|
b|-------------------3---|----------------------|---------------------3---|----------------------|
g|-2--------------0--0---|----------------------|---2--------------0--0---|----------------------|
d|-2--------------0--0---|----------------------|---2--------------0--0---|----------------------|
a|-0--------------0------|----------------------|---0--------------0------|----------------------|
E|-------------------3---|----------------------|---------------------3---|----------------------|


A5 G5 G5 G5 G5 G5 G5 G5
e|-------------------3--|-----------------------|-------------------------|----------------------|
b|-------------------3--|-----------------------|------3------3------3----|---3-----3-----3------|
g|-2--------------0--0--|-----------------------|------0------0------0----|---0-----0-----0------|
d|-2--------------0--0--|-----------------------|------0------0------0----|---0-----0-----0------|
a|-0--------------0-----|-----------------------|-------------------------|----------------------|
E|-------------------3--|-----------------------|------3------2------3----|---2-----3-----4------|

A A
e|---------------|----------------|-----------------|
b|--2------------|----------------|---2-------------|
g|--2------------|----------------|---2-------------|
d|--2------------|----------------|---2-------------| ( END )
a|---------------|----------------|-----------------|
E|---------------|----------------|-----------------|


ProTabs promo.jpg

Onbeperkt en gratis toegang tot alle 25.000
Tabs & Chords en direct meespelen met

Artiest Liedje

...

Gitaarakkoorden ac/dc - Whole lotta rosie tab

Dankzij de bladmuziek op deze pagina wordt het een stuk makkelijker om met de gitaar mee te spelen met Whole lotta rosie tab van ac/dc De ProTabs van Gitaartabs worden door onze professionele gitaardocenten samengesteld. De tabs en chords zijn door leden zelf geplaatst. Deze undefined van ac/dc met Whole lotta rosie tab is voor je geschreven door gitaartabs

Tabs & Chords van ac/dc - Whole lotta rosie tab

Bij de ProTabs delen we niet alleen de tablatuur maar ook de speelwijze van Whole lotta rosie tab Met een beetje gitaar ervaring moet je dit gitaarliedje zeker kunnen spelen, maar als het niet lukt zijn we er altijd om je te helpen. Door een gratis account aan te maken krijg je niet alleen toegang tot deze tab ,akkoorden & tabs van Whole lotta rosie tab maar kun je ook onbeperkt meespelen met een van de meer dan 25.000 andere tabs & chords in onze database.

Plaats opmerking

Verstuur

Beoordeel deze song

Rate UsDon’t love itNot greatGoodGreatLove itRate Us

Bedankt voor je beoordeling!