Hold on

Gitaarliedjes, tabs & akkoorden (chords) Hold on - alabama shakes

Songtype: Tab

arrow&v

Markeer als favoriet

Favoriet

Gemarkeerd als favoriet

Capo:

0

alabama shakes

alabama shakes

Song
Album
Categorie

Hold on

Downloads
1622
Niveau
1
boys & girls

Geplaatst door
gitaartabs
ProTabs-promo.jpg

Alabhama Shakes - Hold on (easy version)

Acoustische gitaar

Dit is niet de originele manier zoals hij door alabama
shakes wordt gespeelt.Het zijn de bekende rifjes uit de song.


e|-----------------------------------------------------------
B|-----------------------------------------------------------
G|-----------------------------------------------------------
D|--0-2-2----------------------------------------------------
A|------------3-3----0-------0-3-3---------------------------
E|----------3----------3-3-----------------------------------

e|-----------------------------------------------------------
B|-----------------------------------------------------------
G|-----------------------------------------------------------
D|--0-2-2--------------------2------------------------------
A|------------3-3----0---------5-3---------------------------
E|----------3----------3-3-----------------------------------

Boven staande rifje speel je 4x


e|-----------------------------------------------------------
B|-----------------------------------------------------------
G|-------5------------5------------5---7-9-9-----------------
D|--5h7-----7----5h7----7-----5h7----------------------------
A|-----------------------------------------------------------
E|-----------------------------------------------------------

e|-----------------------------------------------------------
B|-----------------------------------------------------------
G|-------5-------------5-----------5---9-7-5-----------------
D|--5h7-----7-----5h7----7----5h7----------------------------
A|-----------------------------------------------------------
E|-----------------------------------------------------------

Dit speel je 2x


e|------------------10-10-10-10-10--------------------------
B|----------------------------------------------------------
G|--9-11-------7--------------------------------------------
D|-------9-7------------------------------------------------
A|----------------------------------------------------------
E|----------------------------------------------------------

Hierna begin je weer van boven.


e|--0--0--0-0-----------------------------------------------
B|--1--1--1-1-----------------------------------------------
G|--0--0--0-0-----------------------------------------------
D|--2--3--3-3-----------------------------------------------
A|--3--3--3-3-----------------------------------------------
E|--3--3--3-3-----------------------------------------------

Dit speel je 9x
-------------------------------------------------------------

De tekst;

Bless my heart.

Bless my soul.

Didn't think I'd make it to 22yrs old.

There must be someone up above sayin' "Come on Brittany,



you got to come on up."

"You got to Hold on..."



So, bless my heart and bless yours too.

I don;'t know where I'm gonna go don't what what I'm



gonna do.

Must be somebody up above sayin' "Come on Brittany, You



got to come on up!"

"You got to hold on..."



YEAH! YOU GOT TO WAIT!

YEAH! YOU GOT TO WAIT!

BUT, I DON'T WANNA WAIT!

I DON'T WANNA WAIT...



So, bless my heart.

Bless my mind.

I got so much to do, I ain't got much time

So, must be someone up above saying "Come on girl! You



got to get back up!!"

"You got to hold on..."



"YEAH! YOU GOT TO WAIT!"

I DON'T WANNA WAIT!

WELL, I DON'T WANNA WAIT!

NO, I DON'T WANNA WAIT!



"You got to hold on..."

ProTabs promo.jpg

Onbeperkt en gratis toegang tot alle 25.000
Tabs & Chords en direct meespelen met

Artiest Liedje

...

Gitaarakkoorden alabama shakes - Hold on

Dankzij de bladmuziek op deze pagina wordt het een stuk makkelijker om met de gitaar mee te spelen met Hold on van alabama shakes De ProTabs van Gitaartabs worden door onze professionele gitaardocenten samengesteld. De tabs en chords zijn door leden zelf geplaatst. Deze undefined van alabama shakes met Hold on is voor je geschreven door gitaartabs

Tabs & Chords van alabama shakes - Hold on

Bij de ProTabs delen we niet alleen de tablatuur maar ook de speelwijze van Hold on Met een beetje gitaar ervaring moet je dit gitaarliedje zeker kunnen spelen, maar als het niet lukt zijn we er altijd om je te helpen. Door een gratis account aan te maken krijg je niet alleen toegang tot deze tab ,akkoorden & tabs van Hold on maar kun je ook onbeperkt meespelen met een van de meer dan 25.000 andere tabs & chords in onze database.

Plaats opmerking

Verstuur

Beoordeel deze song

Rate UsDon’t love itNot greatGoodGreatLove itRate Us

Bedankt voor je beoordeling!