Born under a bad sign

Gitaarliedjes, tabs & akkoorden (chords) Born under a bad sign - albert king

Songtype: Tab

arrow&v

Markeer als favoriet

Favoriet

Gemarkeerd als favoriet

Capo:

0

albert king

albert king

Song
Album
Categorie

Born under a bad sign

Downloads
313
Niveau
3
Geplaatst door
rick
ProTabs-promo.jpg

ik weet niet zo precies wat voor stijl dit is dus ik heb het maar gewoon pop gedaan.


|--------|------------------9---------------------------|
|--------|---12b14==(12)r-----12-9----------------------|
|--------|-------------------------11b13==(11)r-11-9----|
|--------|-------------------------------------------11-|
|--------|----------------------------------------------|
|--------|----------------------------------------------|


~~ ~~~
E. S e E S E. S E.
|---------------------13-----------|
|------------12-14-------14--------|
|-9--------------------------------|
|----11----------------------------|
|-------11-------------------------|
|----------------------------------|
|
| Gtr II
| Q E E E E E E
|----------------------------------|
|----------------------------------|
|----------------------------------|
|----------------------------2b2.5-|
|-------------------2--4-----------|
|----------2s=4--------------------|


Chorus
Gtr II
~~ ~~ ~~
Q. E E E Q Q. E E E E E Q. E E E Q
|---------------|--------------------|---------------|
|---------------|--------------------|---------------|
|---------------|--------------------|---------------|
|---------------|--------------2b2.5-|---------------|
|-4--------2----|-4--------2-4-------|-4--------2----|
|------2-4---0--|------2s4-----------|------2-4---0--|
|-Rhy Fig 1

Gtr I
~~~~
Q E a +E +E S S S S e
|-------------------------9-----------|
|-------12b14==(12)-(12)r---9---------|
|-----------------------------11-9----|
|----------------------------------11-|
|-------------------------------------|
|-------------------------------------|
|
| Gtr II
| ~~
| Q. Q Q E
|-------------------------------------|
|-------------------------------------|
|-------------------------------------|
|-------------------------------------|
|-4-----------------------------------|
|----------------1--------2---------3-|


W e E Q H
|--------------------|---9----------------|
|--------------------|--------------------|
|--------------------|--------------------|
|--------------------|--------------------|
|--------------------|--------------------|
|--------------------|--------------------|
|
| Q S S E E E S S E a Q S S e Q Q
|--------------------|--------------------|
|--------------------|--------------------|
|----5---5-----5-----|-------3------------|
|----4---4-----4-----|-------2------------|
|--------------------|--------------------|
|-4--------4-4-----0-|-0h2-------2-2--0---|


~~~~
Q E a +E +E S S S S E
|------------------------9---------------|
|-------12b14==(12)(12)r---9-------------|
|----------------------------11-9--------|
|---------------------------------11-----|
|----------------------------------------|
|----------------------------------------|
|
| ~~
| Q. E E E E E
|----------------------------------------|
|----------------------------------------|
|----------------------------------------|
|----------------------------------2b2.5-|
|-4----------------------2----4----------|
|----------------2s==4-------------------|


Verse 1
~~
E. S E E H H Q E +E
|--------------------||---------------------------|
|--------------------||---------------------------|
|-9------------------||--------------11b13==(11)r-|
|----11--------------||---------------------------|
|-------11-----------||---------------------------|
|--------------------||---------------------------|


ProTabs promo.jpg

Onbeperkt en gratis toegang tot alle 25.000
Tabs & Chords en direct meespelen met

Artiest Liedje

...

Gitaarakkoorden albert king - Born under a bad sign

Dankzij de bladmuziek op deze pagina wordt het een stuk makkelijker om met de gitaar mee te spelen met Born under a bad sign van albert king De ProTabs van Gitaartabs worden door onze professionele gitaardocenten samengesteld. De tabs en chords zijn door leden zelf geplaatst. Deze undefined van albert king met Born under a bad sign is voor je geschreven door rick

Tabs & Chords van albert king - Born under a bad sign

Bij de ProTabs delen we niet alleen de tablatuur maar ook de speelwijze van Born under a bad sign Met een beetje gitaar ervaring moet je dit gitaarliedje zeker kunnen spelen, maar als het niet lukt zijn we er altijd om je te helpen. Door een gratis account aan te maken krijg je niet alleen toegang tot deze tab ,akkoorden & tabs van Born under a bad sign maar kun je ook onbeperkt meespelen met een van de meer dan 25.000 andere tabs & chords in onze database.

Plaats opmerking

Beoordeel deze song

Rate UsDon’t love itNot greatGoodGreatLove itRate Us

Bedankt voor je beoordeling!