Poison

Gitaarliedjes, tabs & akkoorden (chords) Poison - alice cooper

Songtype: Tab

arrow&v

Markeer als favoriet

Favoriet

Gemarkeerd als favoriet

Capo:

0

alice cooper

alice cooper

Song
Album
Categorie

Poison

Downloads
2563
Niveau
1
Geplaatst door
gitaartabs
ProTabs-promo.jpg

Intro Guitar
D
E E E E E E E E E E E E E E E E
E||-------------------------------|-----------------------------||
B||-------------------------------|-----------------------------||
G||--7--7-------------------------|--------5---------5---------*||
D||--7--7--7p--0--14p--0--12p--0--|--4--5-----4S--5-----2p--0--*||
A||--5--5-------------------------|-----------------------------||
E||-------------------------------|-----------------------------||


Bb D5
E E E E E E E E E E E E E E E E 4x
---------------------------------|-----------------------------||
---------------------------------|-----------------------------||
*--------------------------------|--------5---------5---------*||
*---------7p--0--14p--0--12p--0--|--4--5-----4S--5-----2p--0--*||
---3S--5-------------------------|-----------------------------||
---------------------------------|-----------------------------||


Bb
E E E E E E E E E E E E E E E E
--------------------------------|-------------------------------|
--------------------------------|-------------------------------|
--------------------------------|-------------------------------|
---------7p--0--14p--0--12p--0--|--7p--0--14p--0--12p--0--7--0--|
--3S--5-------------------------|-------------------------------|
--------------------------------|-------------------------------|


Dm Bb
D5
W W
-------------------|-------------------|-------------------|-------------------|
-------------------|-------------------|-------------------|-------------------|
--7----------------|--L----------------|-------------------|-------------------|
--7----------------|--L----------------|-------------------|-------------------|
--5----------------|--L----------------|-------------------|-------------------|
-------------------|-------------------|-------------------|-------------------|


F C
Gm
E E E E E E E E
-------------------|-------------------|--------------3-----------|
-------------------|-------------------|--------3-----3--3-----3--|
-------------------|-------------------|-----3-----3-----3--3--3--|
-------------------|-------------------|-----5-----5--------5-----|
-------------------|-------------------|--------------------------|
-------------------|-------------------|--x-----------------------|


Eb Bbsus2
E E E E E E E E E E E E E E E E
--------------------------|------------------------------|
--------6-----6-----------|------------1-----1--------1--|
-----------------8-----8--|---------------------3--------|
-----8--------------8-----|---------3-----3--------3-----|
--6--------6--------------|--1---------------------------|
--------------------------|------------------------------|


Gm Eb
D5
Q E E E E E E E E E E E E Q Q. E H
-------------------------|-------------------------|----------------------|
-------------------------|-------------------------|----------------------|
--7----7--7--7--7--7--7--|--7--7--7--7--7--7--7----|--12------8--L--------|
--7----7--7--7--7--7--7--|--7--7--7--7--7--7--7----|--12------8--L--------|
--5----5--5--5--5--5--5--|--5--5--5--5--5--5--5----|--10------6--L--------|
-------------------------|-------------------------|----------------------|


Bb F Cm Ab Eb Bb
Q. E H Q. E H Q. E H
----------------------|----------------------|---------------------|
----------------------|----------------------|---------------------|
---------10--L--------|--5------13--L--------|--8------------------|
--8------10--L--------|--5------13--L--------|--8------8--L--------|
--8-------8--L--------|--3------11--L--------|--6------8--L--------|
--6-------------------|----------------------|---------6--L--------|


Am F C G Dm Bb
Q. E H Q. E H Q. E H
---------------------|----------------------|---------------------|
---------------------|----------------------|---------------------|
---------------------|--5------12--L--------|--7------------------|
--7------3--L--------|--5------12--L--------|--7------8--L--------|
--7------3--L--------|--3------10--L--------|--5------8--L--------|
--5------1--L--------|----------------------|---------6--L--------|


F C Dm Bb F C
Q. E H Q E E E E Q E E E E E E E E
----------------------|-------------------------|------------------------------|
----------------------|-------------------------|------------------------------|
--10------5--L--------|--7----9--7--9--7S--L----|------------------------------|
--10------5--L--------|-------------------------|--3--5S--7--3--5p--3S--2h--5--|
---8------3--L--------|-------------------------|------------------------------|
----------------------|-------------------------|------------------------------|


Dm Bb F C
Q E E E E Q E E E E E E E E
-------------------------|------------------------------|
-------------------------|------------------------------|
--7----9--7--9--7S--L----|------------------------------|
-------------------------|--3--5S--7--3--5p--3S--2h--5--|
-------------------------|------------------------------|
-------------------------|------------------------------|


Dm Bb F C
Q E E E E Q E E E E E E E E
-------------------------|------------------------------|
-------------------------|------------------------------|
--7----9--7--9--7S--L----|------------------------------|
-------------------------|--3--5S--7--3--5p--3S--2h--5--|
-------------------------|------------------------------|
-------------------------|------------------------------|


Dm Bb F C
Q E E E E Q E E E E E E E E
-------------------------|------------------------------|
-------------------------|------------------------------|
--7----9--7--9--7S--L----|------------------------------|
-------------------------|--3--5S--7--3--5p--3S--2h--5--|
-------------------------|------------------------------|
-------------------------|------------------------------|


Bb
E E E E E E E E E E E E E E E E
--------------------------------|-------------------------------|
--------------------------------|-------------------------------|
--------------------------------|-------------------------------|
---------7p--0--14p--0--12p--0--|--7p--0--14p--0--12p--0--7--0--|
--3S--5-------------------------|-------------------------------|
--------------------------------|-------------------------------|


SOLO
Bb D5
E E E E E E E E E E E E E E E E
---------------------------------|----------------------------|
---------------------------------|----------------------------|
---------------------------------|--------5---------5---------|
---------7p---0--14p--0--12p--0--|--4--5-----4S--5-----2p--0--|
--3S--5--------------------------|----------------------------|
---------------------------------|----------------------------|


Bb D5
E E E E E E E E E E E E E E E E
--------------------------------|----------------------------|
--------------------------------|----------------------------|
--------------------------------|--------5---------5---------|
---------7p--0--14p--0--12p--0--|--4--5-----4S--5-----2p--0--|
--3S--5-------------------------|----------------------------|
--------------------------------|----------------------------|


Bb D5
E E E E E E E E E E E E E E E E
--------------------------------|----------------------------|
--------------------------------|----------------------------|
--------------------------------|--------5---------5---------|
---------7p--0--14p--0--12p--0--|--4--5-----4S--5-----2p--0--|
--3S--5-------------------------|----------------------------|
--------------------------------|----------------------------|


Bb D5
E E E E E E E E E E E E E E E E
--------------------------------|----------------------------|
--------------------------------|----------------------------|
--------------------------------|--------5---------5---------|
---------7p--0--14p--0--12p--0--|--4--5-----4S--5-----2p--0--|
--3S--5-------------------------|----------------------------|
--------------------------------|----------------------------|


Gm Eb Bb
W W W
--------------------|-------------------|-------------------|
--------------------|-------------------|-------------------|
--12----------------|--8----------------|-------------------|
--12----------------|--8----------------|--8----------------|
--10----------------|--6----------------|--8----------------|
--------------------|-------------------|--6----------------|


Gm Eb
D5
Q E E E E E E E E E E E E Q Q. E H
-------------------------|-------------------------|----------------------|
-------------------------|-------------------------|----------------------|
--7----7--7--7--7--7--7--|--7--7--7--7--7--7--7----|--12------8--L--------|
--7----7--7--7--7--7--7--|--7--7--7--7--7--7--7----|--12------8--L--------|
--5----5--5--5--5--5--5--|--5--5--5--5--5--5--5----|--10------6--L--------|
-------------------------|-------------------------|----------------------|


Bb F Cm Ab Eb Bb
Q. E H Q. E H Q. E H
----------------------|----------------------|---------------------|
----------------------|----------------------|---------------------|
---------10--L--------|--5------13--L--------|--8------------------|
--8------10--L--------|--5------13--L--------|--8------8--L--------|
--8-------8--L--------|--3------11--L--------|--6------8--L--------|
--6-------------------|----------------------|---------6--L--------|


Am F C G Dm Bb
Q. E H Q. E H Q. E H
---------------------|----------------------|---------------------|
---------------------|----------------------|---------------------|
---------------------|--5------12--L--------|--7------------------|
--7------3--L--------|--5------12--L--------|--7------8--L--------|
--7------3--L--------|--3------10--L--------|--5------8--L--------|
--5------1--L--------|----------------------|---------6--L--------|


F C Dm Bb F C
Q. E H Q E E E E Q E E E E E E E E
----------------------|-------------------------|------------------------------|
----------------------|-------------------------|------------------------------|
--10------5--L--------|--7----9--7--9--7S--L----|------------------------------|
--10------5--L--------|-------------------------|--3--5S--7--3--5p--3S--2h--5--|
---8------3--L--------|-------------------------|------------------------------|
----------------------|-------------------------|------------------------------|


Dm Bb F C
Q E E E E Q E E E E E E E E
-------------------------|------------------------------|
-------------------------|------------------------------|
--7----9--7--9--7S--L----|------------------------------|
-------------------------|--3--5S--7--3--5p--3S--2h--5--|
-------------------------|------------------------------|
-------------------------|------------------------------|


Dm Bb F C
Q E E E E Q E E E E E E E E
-------------------------|------------------------------|
-------------------------|------------------------------|
--7----9--7--9--7S--L----|------------------------------|
-------------------------|--3--5S--7--3--5p--3S--2h--5--|
-------------------------|------------------------------|
-------------------------|------------------------------|


Dm Bb F C
Q E E E E Q E E E E E E E E
-------------------------|------------------------------|
-------------------------|------------------------------|
--7----9--7--9--7S--L----|------------------------------|
-------------------------|--3--5S--7--3--5p--3S--2h--5--|
-------------------------|------------------------------|
-------------------------|------------------------------|


Bb
E E E E E E E E E E E E E E E E
--------------------------------|-------------------------------|
--------------------------------|-------------------------------|
--------------------------------|-------------------------------|
---------7p--0--14p--0--12p--0--|--7p--0--14p--0--12p--0--7--0--|
--3S--5-------------------------|-------------------------------|
--------------------------------|-------------------------------|


Toedeledokidie.nl
W W
--------------------|-------------------||
--------------------|-------------------||
--7-----------------|--L----------------||
--7-----------------|--L----------------||
--5-----------------|--L----------------||
--------------------|-------------------||




Duration Legend
---------------
W - whole
H - half
Q - quarter
E - 8th
S - 16th
T - 32nd
X - 64th
. - note dotted
|-n-| - n-tuplets


Tablature Legend
----------------
L - tied note
x - dead note
g - grace note
(n) - ghost note
> - accentuded note
NH - natural harmonic
AH - artificial harmonic
TH - tapped harmonic
SH - semi harmonic
PH - pitch harmonic
h - hammer on
p - pull off
b - bend
br - bendRelease
pb - preBend
pbr - preBendRelease
brb - bendReleaseBend
\n/ - tremolo bar dip
\n - tremolo bar dive
-/n - tremolo bar Release up
/n\ - tremolo bar inverted dip
/n - tremolo bar return
-\n - tremolo bar Release down
S - shift slide
s - legato slide
/ - slide into from below or out of upwards
\ - slide into from above or out of downwards
~ - vibrato
W - wide vibrato
tr - trill
TP - tremolo picking
T - tapping
S - slap
P - pop
< - fade in
^ - brush up
v - brush down

ProTabs promo.jpg

Onbeperkt en gratis toegang tot alle 25.000
Tabs & Chords en direct meespelen met

Artiest Liedje

...

Gitaarakkoorden alice cooper - Poison

Dankzij de bladmuziek op deze pagina wordt het een stuk makkelijker om met de gitaar mee te spelen met Poison van alice cooper De ProTabs van Gitaartabs worden door onze professionele gitaardocenten samengesteld. De tabs en chords zijn door leden zelf geplaatst. Deze undefined van alice cooper met Poison is voor je geschreven door gitaartabs

Tabs & Chords van alice cooper - Poison

Bij de ProTabs delen we niet alleen de tablatuur maar ook de speelwijze van Poison Met een beetje gitaar ervaring moet je dit gitaarliedje zeker kunnen spelen, maar als het niet lukt zijn we er altijd om je te helpen. Door een gratis account aan te maken krijg je niet alleen toegang tot deze tab ,akkoorden & tabs van Poison maar kun je ook onbeperkt meespelen met een van de meer dan 25.000 andere tabs & chords in onze database.

Plaats opmerking

Beoordeel deze song

Rate UsDon’t love itNot greatGoodGreatLove itRate Us

Bedankt voor je beoordeling!