Gives you hell

Gitaarliedjes, tabs & akkoorden (chords) Gives you hell - all american rejects

Songtype: Tab

arrow&v

Markeer als favoriet

Favoriet

Gemarkeerd als favoriet

Capo:

0

all american rejects

all american rejects

Song
Album
Categorie

Gives you hell

Downloads
3790
Niveau
2
when the world comes down

Geplaatst door
kaham
ProTabs-promo.jpg

Nummer: Gives You Hell
Artiest: All American Rejects, The
Album: When The World Comes DOwn
Tab: BasG [Kaham]
Tuning: Standard EADGBe

*Dit nummer bestaat uit een leadgitaar (1) en een rhythm-partij (2).
*Beide gitaren zijn weergegeven, met erboven bijbehorende akkoorden en toonduur.
*Performance notes (effecten e.d.) staan tussen haken achter de gitaarpartij waarvoor deze gelden,
en gelden net zolang tot er een nieuwe aanwijzing staat.
*Overigens is het main-riff origineel ook een toetsen-partij volgens mij,
maar zonder wordt het liedje wel heel saai ;)

+++++++++++++++++++++++++++++
++ INTRO ++ 6 maten ++
+++++++++++++++++++++++++++++

Gitaar 1 (Distortion)
E5
<
H. Q W
E||--------------------|-------------------|
B||--------------------|-------------------|
G||---------------9----|--L----------------|
D||---------------9----|--L----------------|
A||---------------7----|--L----------------|
E||--------------------|-------------------|
|| Gitaar 2 (Clean) |
|| W W |
E||--------------------|-------------------|
B||--------------------|-------------------|
G||--------------------|-------------------|
D||--------------------|-------------------|
A||--------------------|-------------------|
E||--------------------|-------------------|


Gitaar 1
W W 2x
||---------------------------|--------------------------||
||---------------------------|--------------------------||
||*--------------------------|-------------------------*||
||*--------------------------|-------------------------*||
||---------------------------|--------------------------||
||---------------------------|--------------------------||
|| Gitaar 2 ||
|| E5 C#m A ||
|| S S E Q S S E Q S S E Q S S E Q ||
||---------------------------|--------------------------||
||----------9-----------5----|---------5-----------5----||
||*---------9-----------6----|---------6-----------6---*||
||*--------------------------|-------------------------*||
||--7----7-------4---4-------|--------------------------||
||---------------------------|--5---5-------5---5-------||

+++++++++++++++++++++++++++++
++ COUPLET 1 ++ 8 maten ++
+++++++++++++++++++++++++++++

Gitaar 1
W W 4x
||---------------------------|--------------------------||
||---------------------------|--------------------------||
||*--------------------------|-------------------------*||
||*--------------------------|-------------------------*||
||---------------------------|--------------------------||
||---------------------------|--------------------------||
|| Gitaar 2 ||
|| E5 C#m A ||
|| S S E Q S S E Q S S E Q S S E Q ||
||---------------------------|--------------------------||
||----------9-----------5----|---------5-----------5----||
||*---------9-----------6----|---------6-----------6---*||
||*--------------------------|-------------------------*||
||--7----7-------4---4-------|--------------------------||
||---------------------------|--5---5-------5---5-------||

+++++++++++++++++++++++++++++
++ REFREIN 1 ++ 4 maten ++
+++++++++++++++++++++++++++++

Gitaar 1
W W
|---------------------------|--------------------------|
|---------------------------|--------------------------|
|---------------------------|--------------------------|
|---------------------------|--------------------------|
|---------------------------|--------------------------|
|---------------------------|--------------------------|
| Gitaar 2 |
| E5 C#m A |
| S S E Q S S E Q S S E Q S S E Q |
|---------------------------|--------------------------|
|----------9-----------5----|---------5-----------5----|
|----------9-----------6----|---------6-----------6----|
|---------------------------|--------------------------|
|--7----7-------4---4-------|--------------------------|
|---------------------------|--5---5-------5---5-------|

Gitaar 1
A5 G#5F#5
W H E E E E
|---------------------------|--------------------------|
|---------------------------|--------------------------|
|---------------------------|--------------------------|
|---------------------------|--------------------------|
|---------------------------|-----------------7--6--4--|
|---------------------------|-----------------5--4--2--|
| Gitaar 2 |
| E5 C#m A |
| S S E Q S S E Q S S E Q S S E Q |
|---------------------------|--------------------------|
|----------9-----------5----|---------5-----------5----|
|----------9-----------6----|---------6-----------6----|
|---------------------------|--------------------------|
|--7----7-------4---4-------|--------------------------|
|---------------------------|--5---5-------5---5-------|

+++++++++++++++++++++++++++++
++ COUPLET 2 ++ 8 maten ++
+++++++++++++++++++++++++++++

Gitaar 1
W W
|---------------------------|--------------------------|
|---------------------------|--------------------------|
|---------------------------|--------------------------|
|---------------------------|--------------------------|
|---------------------------|--------------------------|
|---------------------------|--------------------------|
| Gitaar 2 |
| E5 C#m A |
| S S E Q S S E Q S S E Q S S E Q |
|---------------------------|--------------------------|
|----------9-----------5----|---------5-----------5----|
|----------9-----------6----|---------6-----------6----|
|---------------------------|--------------------------|
|--7----7-------4---4-------|--------------------------|
|---------------------------|--5---5-------5---5-------|

Gitaar 1
A5 G#5F#5
W H E E E E
|---------------------------|--------------------------|
|---------------------------|--------------------------|
|---------------------------|--------------------------|
|---------------------------|--------------------------|
|---------------------------|--------------------------|
|---------------------------|-----------------5--4--2--|
| Gitaar 2 |
| E5 C#m A |
| S S E Q S S E Q S S E Q S S E Q |
|---------------------------|--------------------------|
|----------9-----------5----|---------5-----------5----|
|----------9-----------6----|---------6-----------6----|
|---------------------------|--------------------------|
|--7----7-------4---4-------|--------------------------|
|---------------------------|--5---5-------5---5-------|

Gitaar 1
W W 2x
||---------------------------|--------------------------||
||---------------------------|--------------------------||
||*--------------------------|-------------------------*||
||*--------------------------|-------------------------*||
||---------------------------|--------------------------||
||---------------------------|--------------------------||
|| Gitaar 2 ||
|| E5 C#m A ||
|| S S E Q S S E Q S S E Q S S E Q ||
||---------------------------|--------------------------||
||----------9-----------5----|---------5-----------5----||
||*---------9-----------6----|---------6-----------6---*||
||*--------------------------|-------------------------*||
||--7----7-------4---4-------|--------------------------||
||---------------------------|--5---5-------5---5-------||

+++++++++++++++++++++++++++++
++ PRE-CHORUS ++ 4 maten ++
+++++++++++++++++++++++++++++

Gitaar 1
W W
|------------------------|-------------------------|
|------------------------|-------------------------|
|------------------------|-------------------------|
|------------------------|-------------------------|
|------------------------|-------------------------|
|------------------------|-------------------------|
| Gitaar 2 |
| E/B B |
| E E E Q Q E E E E Q Q E |
|------------------------|-------------------------|
|-----------9------------|-------------------------|
|--------9-------9-------|-----------8-------------|
|-----9---------------9--|--------9-------9--------|
|------------------------|-----9---------------11--|
|--7---------------------|--7----------------------|

Gitaar 1
C#m/E
W E E E H E
|------------------------|-----------0--------L--|
|------------------------|-----------2--------L--|
|------------------------|--------1--------------|
|------------------------|-----2-----------------|
|------------------------|-----------------------|
|------------------------|--0--------------------|
| Gitaar 2 |
| E Bsus4 |
| E E E Q Q E E E E H E |
|------------------------|-----------------------|
|-----------9------------|-----------------------|
|--------9-------9-------|-----------9-----------|
|-----9---------------9--|--------9--------------|
|--7---------------------|-----7-----------------|
|------------------------|--7--------------------|

+++++++++++++++++++++++++++++
++ REFREIN 2 ++ 8 maten ++
+++++++++++++++++++++++++++++

Gitaar 1
E C#m A
E E Q E E Q E E Q E E Q 3x
||---0--0------------------|-------------------------||
||---0--0-------5--5-------|--2--2-------2--2--------||
||*--1--1-------6--6-------|--2--2-------2--2-------*||
||*--2--2-------6--6-------|--2--2-------2--2-------*||
||---2--2-------4--4-------|--0--0-------0--0--------||
||---0--0------------------|-------------------------||
|| Gitaar 2 (Distortion) ||
|| E5 C#5 A5 ||
|| E E Q E E Q E E Q E E Q ||
||-------------------------|-------------------------||
||-------------------------|-------------------------||
||*--9--9-------6--6-------|------------------------*||
||*--9--9-------6--6-------|--7--7-------7--7-------*||
||---7--7-------4--4-------|--7--7-------7--7--------||
||-------------------------|--5--5-------5--5--------||

Gitaar 1
E C#m A
E E Q E E Q E E Q E E Q
|--0--0------------------|-------------------------|
|--0--0-------5--5-------|--2--2-------2--2--------|
|--1--1-------6--6-------|--2--2-------2--2--------|
|--2--2-------6--6-------|--2--2-------2--2--------|
|--2--2-------4--4-------|--0--0-------0--0--------|
|--0--0------------------|-------------------------|
| Gitaar 2 |
| E5 C#5 A5 |
| > |
| E E Q E E Q E E Q E E E E |
|------------------------|-------------------------|
|------------------------|-------------------------|
|--9--9-------6--6-------|-------------------------|
|--9--9-------6--6-------|--7--7-------7--7-----7--|
|--7--7-------4--4-------|--7--7-------7--7-----7--|
|------------------------|--5--5-------5--5-----5--|

+++++++++++++++++++++++++++++
++ "SOLO" ++ 4 maten ++
+++++++++++++++++++++++++++++
Gitaar 1
E Q E E E E E W
|----------------------------------|-------------------|
|-----12br----9h--10p--9-----------|-------------------|
|-------------------------11-------|-------------------|
|-----------------------------10b--|--L----------------|
|----------------------------------|-------------------|
|----------------------------------|-------------------|
| Gitaar 2 |
| E E H. W |
|----------------------------------|-------------------|
|----------------------------------|-------------------|
|----------------------------------|-------------------|
|--L\------------------------------|-------------------|
|--L\------------------------------|-------------------|
|--L\------------------------------|-------------------|

Gitaar 1
E Q E E E E E H E E Q
|--------------------------------|--------------------------|
|-----12br----9--10--9------12~--|---L-----------12b--12----|
|-----------------------11-------|--------------------------|
|--------------------------------|--------------------------|
|--------------------------------|--------------------------|
|--------------------------------|--------------------------|
| Gitaar 2 |
| W W |
|--------------------------------|--------------------------|
|--------------------------------|--------------------------|
|--------------------------------|--------------------------|
|--------------------------------|--------------------------|
|--------------------------------|--------------------------|
|--------------------------------|--------------------------|

+++++++++++++++++++++++++++++
++ COUPLET 3 ++ 4 maten ++
+++++++++++++++++++++++++++++

Gitaar 1
W W
|-----------------------|-----------------------|
|-----------------------|-----------------------|
|-----------------------|-----------------------|
|-----------------------|-----------------------|
|-----------------------|-----------------------|
|-----------------------|-----------------------|
| Gitaar 2 (Clean) |
| E/B B7sus4 |
| E E E Q. Q E E E Q. Q |
|-----------4-----------|-----------5-----------|
|-----5-----------------|-----5-----------------|
|--4-----4--------------|--4-----4--------------|
|-----------------------|-----------------------|
|-----------------------|-----------------------|
|-----------------------|-----------------------|

Gitaar 1
W W
|-----------------------|-----------------------|
|-----------------------|-----------------------|
|-----------------------|-----------------------|
|-----------------------|-----------------------|
|-----------------------|-----------------------|
|-----------------------|-----------------------|
| Gitaar 2 |
| E/B A |
| E E E Q. Q E E E Q. Q |
|-----------4-----------|-----------0-----------|
|-----5-----------------|-----2-----------------|
|--4-----4--------------|--2-----2--------------|
|-----------------------|-----------------------|
|-----------------------|-----------------------|
|-----------------------|-----------------------|

+++++++++++++++++++++++++++++
++ PRE-CHORUS ++ 4 maten ++
+++++++++++++++++++++++++++++

Gitaar 1
W W
|------------------------|-------------------------|
|------------------------|-------------------------|
|------------------------|-------------------------|
|------------------------|-------------------------|
|------------------------|-------------------------|
|------------------------|-------------------------|
| Gitaar 2 |
| E/B B |
| E E E Q Q E E E E Q Q E |
|------------------------|-------------------------|
|-----------9------------|-------------------------|
|--------9-------9-------|-----------8-------------|
|-----9---------------9--|--------9-------9--------|
|------------------------|-----9---------------11--|
|--7---------------------|--7----------------------|

Gitaar 1
C#m/E
W E E E H E
|------------------------|-----------0--------L--|
|------------------------|-----------2--------L--|
|------------------------|--------1--------------|
|------------------------|-----2-----------------|
|------------------------|-----------------------|
|------------------------|--0--------------------|
| Gitaar 2 |
| E Bsus4 |
| E E E Q Q E E E E H E |
|------------------------|-----------------------|
|-----------9------------|-----------------------|
|--------9-------9-------|-----------9-----------|
|-----9---------------9--|--------9--------------|
|--7---------------------|-----7-----------------|
|------------------------|--7--------------------|

+++++++++++++++++++++++++++++
++ REFREIN 3 ++ 4 maten ++
+++++++++++++++++++++++++++++

Gitaar 1
E C#m A
E E Q E E Q E E Q E E Q
|--0--0------------------|--------------------------|
|--0--0-------5--5-------|--2--2---------2--2-------|
|--1--1-------6--6-------|--2--2---------2--2-------|
|--2--2-------6--6-------|--2--2---------2--2-------|
|--2--2-------4--4-------|--0--0---------0--0-------|
|--0--0------------------|--------------------------|
| Gitaar 2 (Distortion) |
| E5 C#5 A5 |
| E E Q E E Q E E E S S E E Q |
|------------------------|--------------------------|
|------------------------|--------------------------|
|--9--9------6---6-------|--------------------------|
|--9--9------6---6-------|--7--7-----7-7-7--7-------|
|--7--7------4---4-------|--7--7-----7-7-7--7-------|
|------------------------|--5--5-----5-5-5--5-------|

Gitaar 1
E C#m A
E E Q E E Q E E Q E E Q
|--0--0------------------|-------------------------|
|--0--0-------5--5-------|--2--2-------2--2--------|
|--1--1-------6--6-------|--2--2-------2--2--------|
|--2--2-------6--6-------|--2--2-------2--2--------|
|--2--2-------4--4-------|--0--0-------0--0--------|
|--0--0------------------|-------------------------|
| Gitaar 2 |
| E5 C#5 A5 B5 |
| E E Q E E Q E E Q E E Q |
|------------------------|-------------------------|
|------------------------|-------------------------|
|--9--9-------6--6-------|-------------------4s----|
|--9--9-------6--6-------|--7--7-------7--7--4s----|
|--7--7-------4--4-------|--7--7-------7--7--2s----|
|------------------------|--5--5-------5--5--------|

Gitaar 1
E C#m A
E E Q E E Q E E Q E E Q
|--0--0------------------|------------------------|
|--0--0-------5--5-------|--2--2-------2--2-------|
|--1--1-------6--6-------|--2--2-------2--2-------|
|--2--2-------6--6-------|--2--2-------2--2-------|
|--2--2-------4--4-------|--0--0-------0--0-------|
|--0--0------------------|------------------------|
| Gitaar 2 |
| E5 C#5 A5 |
| E E Q E E Q E E Q E Q. |
|------------------------|------------------------|
|------------------------|------------------------|
|--9--9-------6--6-------|------------------------|
|--9--9-------6--6-------|--7--7-------7--7S------|
|--7--7-------4--4-------|--7--7-------7--7S------|
|------------------------|--5--5-------5--5S------|

Gitaar 1
E C#m A B
E E Q E E Q E E Q E E Q
|--0--0------------------|-------------------------|
|--0--0-------5--5-------|--2--2-------2--2---4----|
|--1--1-------6--6-------|--2--2-------2--2---4----|
|--2--2-------6--6-------|--2--2-------2--2---4----|
|--2--2-------4--4-------|--0--0-------0--0---2----|
|--0--0------------------|-------------------------|
| Gitaar 2 |
| E5 C#5 A5 B5 |
| E E Q E E Q E E Q E E Q |
|------------------------|-------------------------|
|------------------------|-------------------------|
|-------------6--6-------|-------------------------|
|--2--2-------6--6-------|--7--7-------7--7s--9----|
|--2--2-------4--4-------|--7--7-------7--7s--9----|
|--0--0------------------|--5--5-------5--5s--7----|

+++++++++++++++++++++++++++++
++ BRUG ++ 9 maten ++
+++++++++++++++++++++++++++++

Gitaar 1
E5
<
W W W
|-------------------|-------------------|-------------------|
|-------------------|-------------------|-------------------|
|-------------------|-------------------|-------------------|
|-------------------|-------------------|-------------------|
|-------------------|-------------------|--2----------------|
|-------------------|-------------------|--0----------------|
| Gitaar 2 (Keyboard genoteerd voor gitaar) |
| C#m A E |
| W W W |
|-------------------|-------------------|-------------------|
|--5----------------|--2----------------|--0----------------|
|--6----------------|--2----------------|--1----------------|
|--6----------------|--2----------------|--2----------------|
|--4----------------|--0----------------|--2----------------|
|-------------------|-------------------|--0----------------|

Gitaar 1 (Vanaf 2e maat keyboard genoteerd voor gitaar)
G#5 F#5
Q. Q. Q S S S S S S S S S S S S S S S S
|---------------------|--16p-12----12-16p-12----12-16p-12----12-16p-12----12-|
|---------------------|---------14-----------14-----------14-----------14----|
|---------------------|------------------------------------------------------|
|---------------------|------------------------------------------------------|
|--6------4-----------|------------------------------------------------------|
|--4------2-----------|------------------------------------------------------|
| Gitaar 2 |
| G#5 F#5 E5 C#m |
| Q. Q. Q W |
|---------------------|------------------------------------------------------|
|---------------------|--5---------------------------------------------------|
|---------------------|--6---------------------------------------------------|
|--6------4------2----|--6---------------------------------------------------|
|--6------4------2----|--4---------------------------------------------------|
|--4------2------0----|------------------------------------------------------|

Gitaar 1
S S S S S S S S S S S S S S S S
|--19p-12----12-19p-12----12-19p-12----12-19p-12----12-|
|---------14-----------14-----------14-----------14----|
|------------------------------------------------------|
|------------------------------------------------------|
|------------------------------------------------------|
|------------------------------------------------------|
| Gitaar 2 |
| A5 |
| W |
|------------------------------------------------------|
|------------------------------------------------------|
|-------2----------------------------------------------|
|-------2----------------------------------------------|
|-------0----------------------------------------------|
|------------------------------------------------------|

Gitaar 1
S S S S S S S S S S S S S S S S
|--17p-12----12-17p-12----12-17p-12----12-17p-12----12-|
|---------14-----------14-----------14-----------14----|
|------------------------------------------------------|
|------------------------------------------------------|
|------------------------------------------------------|
|------------------------------------------------------|
| Gitaar 2 |
| F#5 |
| W |
|------------------------------------------------------|
|------------------------------------------------------|
|------------------------------------------------------|
|-------4----------------------------------------------|
|-------4----------------------------------------------|
|-------2----------------------------------------------|

Gitaar 1 (Laatste maat keyboard)
H. Q W
|---------------------|-------------------|
|---------------------|-------------------|
|--11-----------------|-------------------|
|---------------------|-------------------|
|---------------------|-------------------|
|---------------------|-------------------|
|---------------------|-------------------|
| Gitaar 2 (Laatste maat keyboard) |
| B5 |
| W W |
|---------------------|-------------------|
|---------------------|-------------------|
|---4-----------------|-------------------|
|---4-----------------|-------------------|
|---2-----------------|-------------------|
|---------------------|-------------------|

+++++++++++++++++++++++++++++
++ REFREIN 4 ++ 8 maten ++
+++++++++++++++++++++++++++++

Gitaar 1 (Distortion)
W W 4x
||--------------------|--------------------||
||--------------------|--------------------||
||*-------------------|-------------------*||
||*-------------------|-------------------*||
||--------------------|--------------------||
||--------------------|--------------------||
|| Gitaar 2 (Distortion)
|| W W 4x
||--------------------|--------------------||
||--------------------|--------------------||
||*-------------------|-------------------*||
||*-------------------|-------------------*||
||--------------------|--------------------||
||--------------------|--------------------||

+++++++++++++++++++++++++++++
++ REFREIN 5 ++ 12 maten ++
+++++++++++++++++++++++++++++

Gitaar 1
E A C#m B
E E Q E E Q E E Q E E Q E E Q E E Q
|--0--0-------0--0-------|------------------------|------------------------|
|--0--0-------0--0-------|--2--2-------2--2-------|--5--5-------4--4-------|
|--1--1-------1--1-------|--2--2-------2--2-------|--6--6-------4--4-------|
|--2--2-------2--2-------|--2--2-------2--2-------|--6--6-------4--4-------|
|--2--2-------2--2-------|--0--0-------0--0-------|--4--4-------2--2-------|
|--0--0-------0--0-------|------------------------|------------------------|
| Gitaar 2 |
| E5 A5 C#5 B5 |
| E E Q E E Q E E Q E E Q E E Q E E Q |
|------------------------|------------------------|------------------------|
|------------------------|------------------------|------------------------|
|--9--9-------9--9-------|--2--2-------2--2-------|--6--6-------4--4-------|
|--9--9-------9--9-------|--2--2-------2--2-------|--6--6-------4--4-------|
|--7--7-------7--7-------|--0--0-------0--0-------|--4--4-------2--2-------|
|------------------------|------------------------|------------------------|

Gitaar 1
E A
E E Q E E Q E E Q E E Q E E Q E E Q
|--0--0-------0--0-------|--0--0--------0--0--------|--------------------------|
|--0--0-------0--0-------|--0--0--------0--0--------|--2--2--------2--2--------|
|--1--1-------1--1-------|--1--1--------1--1--------|--2--2--------2--2--------|
|--2--2-------2--2-------|--2--2--------2--2--------|--2--2--------2--2--------|
|--2--2-------2--2-------|--2--2--------2--2--------|--0--0--------0--0--------|
|--0--0-------0--0-------|--0--0--------0--0--------|--------------------------|
| Gitaar 2 |
| E5 A5 |
| E E Q E E Q E E E E E E E E E E E E E E E E |
|------------------------|--------------------------|--------------------------|
|------------------------|--------------------------|--------------------------|
|--9--9-------9--9-------|--9--9--9--9--9--9--9--9--|--2--2--2--2--2--2--2--2--|
|--9--9-------9--9-------|--9--9--9--9--9--9--9--9--|--2--2--2--2--2--2--2--2--|
|--7--7-------7--7-------|--7--7--7--7--7--7--7--7--|--0--0--0--0--0--0--0--0--|
|------------------------|--------------------------|--------------------------|

Gitaar 1
C#m B E
E E Q E E Q E E Q E E Q
|--------------------------|--0--0--------0--0--------|
|--5--5--------4--4--------|--0--0--------0--0--------|
|--6--6--------4--4--------|--1--1--------1--1--------|
|--6--6--------4--4--------|--2--2--------2--2--------|
|--4--4--------2--2--------|--2--2--------2--2--------|
|--------------------------|--0--0--------0--0--------|
| Gitaar 2 |
| C#5 B5 E5 |
| E E E E E E E E E E E E E E E E |
|--------------------------|--------------------------|
|--------------------------|--------------------------|
|--6--6--6--6--4--4--4--4--|--9--9--9--9--9--9--9--9--|
|--6--6--6--6--4--4--4--4--|--9--9--9--9--9--9--9--9--|
|--4--4--4--4--2--2--2--2--|--7--7--7--7--7--7--7--7--|
|--------------------------|--------------------------|

Gitaar 1
C#m B E
E E Q E E Q E E Q E E Q
|--------------------------|--0--0--------0--0--------|
|--5--5--------4--4--------|--0--0--------0--0--------|
|--6--6--------4--4--------|--1--1--------1--1--------|
|--6--6--------4--4--------|--2--2--------2--2--------|
|--4--4--------2--2--------|--2--2--------2--2--------|
|--------------------------|--0--0--------0--0--------|
| Gitaar 2 |
| C#5 B5 E5 |
| E E E E E E E E E E E E E E E E |
|--------------------------|--------------------------|
|--------------------------|--------------------------|
|--6--6--6--6--4--4--4--4--|--9--9--9--9--9--9--9--9--|
|--6--6--6--6--4--4--4--4--|--9--9--9--9--9--9--9--9--|
|--4--4--4--4--2--2--2--2--|--7--7--7--7--7--7--7--7--|
|--------------------------|--------------------------|

Gitaar 1
C#m B
E E E E E E E E W
|--------------------------|-------------------||
|--5--5--5--5--4--4--4--4--|-------------------||
|--6--6--6--6--4--4--4--4--|-------------------||
|--6--6--6--6--4--4--4--4--|-------------------||
|--4--4--4--4--2--2--2--2--|-------------------||
|--------------------------|-------------------||
| Gitaar 2 ||
| C#5 B5 ||
| E E E E E E E E W ||
|--------------------------|-------------------||
|--------------------------|-------------------||
|--6--6--6--6--4--4--4--4--|-------------------||
|--6--6--6--6--4--4--4--4--|-------------------||
|--4--4--4--4--2--2--2--2--|-------------------||
|--------------------------|-------------------||

ProTabs promo.jpg

Onbeperkt en gratis toegang tot alle 25.000
Tabs & Chords en direct meespelen met

Artiest Liedje

...

Gitaarakkoorden all american rejects - Gives you hell

Dankzij de bladmuziek op deze pagina wordt het een stuk makkelijker om met de gitaar mee te spelen met Gives you hell van all american rejects De ProTabs van Gitaartabs worden door onze professionele gitaardocenten samengesteld. De tabs en chords zijn door leden zelf geplaatst. Deze undefined van all american rejects met Gives you hell is voor je geschreven door kaham

Tabs & Chords van all american rejects - Gives you hell

Bij de ProTabs delen we niet alleen de tablatuur maar ook de speelwijze van Gives you hell Met een beetje gitaar ervaring moet je dit gitaarliedje zeker kunnen spelen, maar als het niet lukt zijn we er altijd om je te helpen. Door een gratis account aan te maken krijg je niet alleen toegang tot deze tab ,akkoorden & tabs van Gives you hell maar kun je ook onbeperkt meespelen met een van de meer dan 25.000 andere tabs & chords in onze database.