Move along

Gitaarliedjes, tabs & akkoorden (chords) Move along - all american rejects

Songtype: Tab

arrow&v

Markeer als favoriet

Favoriet

Gemarkeerd als favoriet

Capo:

0

all american rejects

all american rejects

Song
Album
Categorie

Move along

Downloads
1344
Niveau
2

Geplaatst door
[b]lack[a]ngel
ProTabs-promo.jpg

Move Along Move Along,, Like I know U Do =)

Gtr I (E A D G B E) - 'Distortion 1'
Gtr II (E A D G B E) - 'Distorted 2'
Gtr III (E A D G B E) - 'Piano'

Eb Bb
Gtrs I, II
|---------------------------------|-6-6---6-6---6-6---6-6---6-6-6-6-|
|-8-8---8-8---8-8---8-8---8-8-8-8-|-6-6---6-6---6-6---6-6---6-6-6-6-|
|-8-8---8-8---8-8---8-8---8-8-8-8-|-7-7---7-7---7-7---7-7---7-7-7-7-|
|-8-8---8-8---8-8---8-8---8-8-8-8-|-8-8---8-8---8-8---8-8---8-8-8-8-|
|-6-6---6-6---6-6---6-6---6-6-6-6-|-8-8---8-8---8-8---8-8---8-8-8-8-|
|---------------------------------|-6-6---6-6---6-6---6-6---6-6-6-6-|

Cm
|--8--8----8--8----8--8----8--8----8--8--8--8-|
|--8--8----8--8----8--8----8--8----8--8--8--8-|
|--8--8----8--8----8--8----8--8----8--8--8--8-|
|-10-10---10-10---10-10---10-10---10-10-10-10-|
|-10-10---10-10---10-10---10-10---10-10-10-10-|
|--8--8----8--8----8--8----8--8----8--8--8--8-|


Ab
|-4-4---4-4---4-4---4-4---4-4-4-4--|
|-4-4---4-4---4-4---4-4---4-4-4-4--|
|-5-5---5-5---5-5---5-5---5-5-5-5--|
|-6-6---6-6---6-6---6-6---6-6-6-6--|
|-6-6---6-6---6-6---6-6---6-6-6-6--|
|-4-4---4-4---4-4---4-4---4-4-4-4--|


Couplet 1
Eb Bb
||----------------------------------|-6-6---6-6---6-6---6-6---6-6-6-6-|
||o-8-8---8-8---8-8---8-8---8-8-8-8-|-6-6---6-6---6-6---6-6---6-6-6-6-|
||--8-8---8-8---8-8---8-8---8-8-8-8-|-7-7---7-7---7-7---7-7---7-7-7-7-|
||--8-8---8-8---8-8---8-8---8-8-8-8-|-8-8---8-8---8-8---8-8---8-8-8-8-|
||o-6-6---6-6---6-6---6-6---6-6-6-6-|-8-8---8-8---8-8---8-8---8-8-8-8-|
||----------------------------------|-6-6---6-6---6-6---6-6---6-6-6-6-|


Cm
|--8--8----8--8----8--8----8--8----8--8--8--8-|
|--8--8----8--8----8--8----8--8----8--8--8--8-|
|--8--8----8--8----8--8----8--8----8--8--8--8-|
|-10-10---10-10---10-10---10-10---10-10-10-10-|
|-10-10---10-10---10-10---10-10---10-10-10-10-|
|--8--8----8--8----8--8----8--8----8--8--8--8-|


Ab
|-4-4---4-4---4-4---4-4---4-4-4-4---||
|-4-4---4-4---4-4---4-4---4-4-4-4--o||
|-5-5---5-5---5-5---5-5---5-5-5-5---||
|-6-6---6-6---6-6---6-6---6-6-6-6---||
|-6-6---6-6---6-6---6-6---6-6-6-6--o||
|-4-4---4-4---4-4---4-4---4-4-4-4---||



Refrein
Eb
Gtr I
||--------------------------------------|
||o-8-8-8-8-8-8-8-8-8-8-8-8--8--8--8--8-|
||--8-8-8-8-8-8-8-8-8-8-8-8--8--8--8--8-|
||--8-8-8-8-8-8-8-8-8-8-8-8--8--8--8--8-|
||o-6-6-6-6-6-6-6-6-6-6-6-6--6--6--6--6-|
||--------------------------------------|
|
| Gtr II

||--------------------------------------|
||o-------------------------------------|
||--8-8-8-8-8-8-8-8-8-8-8-8S10-10-10-10S|
||--------------------------------------|
||o-6-6-6-6-6-6-6-6-6-6-6-6S=8--8--8--8S|
||--------------------------------------|


Bb
|--6--6--6--6--6--6--6--6--6--6--6--6--6--6--6--6--|
|--6--6--6--6--6--6--6--6--6--6--6--6--6--6--6--6--|
|--7--7--7--7--7--7--7--7--7--7--7--7--7--7--7--7--|
|--8--8--8--8--8--8--8--8--8--8--8--8--8--8--8--8--|
|--8--8--8--8--8--8--8--8--8--8--8--8--8--8--8--8--|
|--6--6--6--6--6--6--6--6--6--6--6--6--6--6--6--6--|

|--------------------------------------------------|
|--------------------------------------------------|
|-12-12-12-12-12-12-12-12-12-12-12-12-12-12-12-12\-|
|--------------------------------------------------|
|-10-10-10-10-10-10-10-10-10-10-10-10-10-10-10-10\-|
|--------------------------------------------------|


Cm
|--8--8--8--8--8--8--8--8--8--8--8--8--8--8--8--8--|
|--8--8--8--8--8--8--8--8--8--8--8--8--8--8--8--8--|
|--8--8--8--8--8--8--8--8--8--8--8--8--8--8--8--8--|
|-10-10-10-10-10-10-10-10-10-10-10-10-10-10-10-10--|
|-10-10-10-10-10-10-10-10-10-10-10-10-10-10-10-10--|
|--8--8--8--8--8--8--8--8--8--8--8--8--8--8--8--8--|


|--------------------------------------------------|
|--------------------------------------------------|
|-10-10-10-10-10-10-10-10-10-10-10-10-10-10-10-10\-|
|--------------------------------------------------|
|--8--8--8--8--8--8--8--8--8--8--8--8--8--8--8--8\-|
|--------------------------------------------------|


Ab
|-4-4-4-4-4-4-4-4-4-4-4-4-4-4-4-4---||
|-4-4-4-4-4-4-4-4-4-4-4-4-4-4-4-4--o||
|-5-5-5-5-5-5-5-5-5-5-5-5-5-5-5-5---||
|-6-6-6-6-6-6-6-6-6-6-6-6-6-6-6-6---||
|-6-6-6-6-6-6-6-6-6-6-6-6-6-6-6-6--o||
|-4-4-4-4-4-4-4-4-4-4-4-4-4-4-4-4---||


|-----------------------------------||
|----------------------------------o||
|-8-8-8-8-8-8-8-8-8-8-8-8-8-8-8-8---||
|-----------------------------------||
|-6-6-6-6-6-6-6-6-6-6-6-6-6-6-6-6--o||
|-----------------------------------||


bridge
Eb Bb
|----------------------------------|-6-6---6-6---6-6---6-6---6-6-6-6--|
|-8-8---8-8---8-8---8-8---8-8-8-8-|-6-6---6-6---6-6---6-6---6-6-6-6--|
|-8-8---8-8---8-8---8-8---8-8-8-8-|-7-7---7-7---7-7---7-7---7-7-7-7--|
|-8-8---8-8---8-8---8-8---8-8-8-8-|-8-8---8-8---8-8---8-8---8-8-8-8--|
|-6-6---6-6---6-6---6-6---6-6-6-6-|-8-8---8-8---8-8---8-8---8-8-8-8--|
|---------------------------------|-6-6---6-6---6-6---6-6---6-6-6-6--|


Cm
|--8--8----8--8----8--8----8--8----8--8--8--8-|
|--8--8----8--8----8--8----8--8----8--8--8--8-|
|--8--8----8--8----8--8----8--8----8--8--8--8-|
|-10-10---10-10---10-10---10-10---10-10-10-10-|
|-10-10---10-10---10-10---10-10---10-10-10-10-|
|--8--8----8--8----8--8----8--8----8--8--8--8-|


Ab|-4-4---4-4---4-4---4-4---4-4-4-4--|
|-4-4---4-4---4-4---4-4---4-4-4-4--|
|-5-5---5-5---5-5---5-5---5-5-5-5--|
|-6-6---6-6---6-6---6-6---6-6-6-6--|
|-6-6---6-6---6-6---6-6---6-6-6-6--|
|-4-4---4-4---4-4---4-4---4-4-4-4--|


Couplet 2
Eb Bb
|----------------------|-6-6-6-6-6------------|
|-8-8-8-8-8------------|-6-6-6-6-6------------|
|-8-8-8-8-8------------|-7-7-7-7-7------------|
|-8-8-8-8-8------------|-8-8-8-8-8------------|
|-6-6-6-6-6------------|-8-8-8-8-8------------|
|----------------------|-6-6-6-6-6------------|

PALM MUTE HIERNA!!

Cm
|-------------------------------------------|
|-------------------------------------------|
|-------------------------------------------|
|------10------10------10------10------10---|
|---10------10------10------10------10------|
|-8-------8-------8-------8-------8-------8-|


Ab Eb
|---------------------------------|----------------------------------|
|---------------------------------|----------------------------------|
|---------------------------------|-----8-----8-----8-----8-----8----|
|-----6-----6-----6-----6-----6---|---8-----8-----8-----8-----8------|
|---6-----6-----6-----6-----6-----|-6-----6-----6-----6-----6-----6--|
|-4-----4-----4-----4-----4-----4-|----------------------------------|


Bb Cm
|---------------------------------|--------------------------------------------|
|---------------------------------|--------------------------------------------|
|---------------------------------|--------------------------------------------|
|-----8-----8-----8-----8-----8---|------10------10------10------10------10----|
|---8-----8-----8-----8-----8-----|---10------10------10------10------10-------|
|-6-----6-----6-----6-----6-----6-|-8-------8-------8-------8-------8-------8--|


Ab
|---------------------------------|
|---------------------------------|
|---------------------------------|
|-----6-----6-----6-----6-----6---|
|---6-----6-----6-----6-----6-----|
|-4-----4-----4-----4-----4-----4-|


STOP PALM MUTE


Refrein
Eb
||--------------------------------------|
||o-8-8-8-8-8-8-8-8-8-8-8-8--8--8--8--8-|
||--8-8-8-8-8-8-8-8-8-8-8-8--8--8--8--8-|
||--8-8-8-8-8-8-8-8-8-8-8-8--8--8--8--8-|
||o-6-6-6-6-6-6-6-6-6-6-6-6--6--6--6--6-|
||--------------------------------------|

Gtr II
||--------------------------------------|
||o-------------------------------------|
||--8-8-8-8-8-8-8-8-8-8-8-8S10-10-10-10S|
||--------------------------------------|
||o-6-6-6-6-6-6-6-6-6-6-6-6S=8--8--8--8S|
||--------------------------------------|


Bb
|--6--6--6--6--6--6--6--6--6--6--6--6--6--6--6--6--|
|--6--6--6--6--6--6--6--6--6--6--6--6--6--6--6--6--|
|--7--7--7--7--7--7--7--7--7--7--7--7--7--7--7--7--|
|--8--8--8--8--8--8--8--8--8--8--8--8--8--8--8--8--|
|--8--8--8--8--8--8--8--8--8--8--8--8--8--8--8--8--|
|--6--6--6--6--6--6--6--6--6--6--6--6--6--6--6--6--|



|--------------------------------------------------|
|--------------------------------------------------|
|-12-12-12-12-12-12-12-12-12-12-12-12-12-12-12-12\-|
|--------------------------------------------------|
|-10-10-10-10-10-10-10-10-10-10-10-10-10-10-10-10\-|
|--------------------------------------------------|


Cm
|--8--8--8--8--8--8--8--8--8--8--8--8--8--8--8--8--|
|--8--8--8--8--8--8--8--8--8--8--8--8--8--8--8--8--|
|--8--8--8--8--8--8--8--8--8--8--8--8--8--8--8--8--|
|-10-10-10-10-10-10-10-10-10-10-10-10-10-10-10-10--|
|-10-10-10-10-10-10-10-10-10-10-10-10-10-10-10-10--|
|--8--8--8--8--8--8--8--8--8--8--8--8--8--8--8--8--|



|--------------------------------------------------|
|--------------------------------------------------|
|-10-10-10-10-10-10-10-10-10-10-10-10-10-10-10-10\-|
|--------------------------------------------------|
|--8--8--8--8--8--8--8--8--8--8--8--8--8--8--8--8\-|
|--------------------------------------------------|


Ab
|-4-4-4-4-4-4-4-4-4-4-4-4-4-4-4-4---||
|-4-4-4-4-4-4-4-4-4-4-4-4-4-4-4-4--o||
|-5-5-5-5-5-5-5-5-5-5-5-5-5-5-5-5---||
|-6-6-6-6-6-6-6-6-6-6-6-6-6-6-6-6---||
|-6-6-6-6-6-6-6-6-6-6-6-6-6-6-6-6--o||
|-4-4-4-4-4-4-4-4-4-4-4-4-4-4-4-4---||



|-----------------------------------||
|----------------------------------o||
|-8-8-8-8-8-8-8-8-8-8-8-8-8-8-8-8---||
|-----------------------------------||
|-6-6-6-6-6-6-6-6-6-6-6-6-6-6-6-6--o||
|-----------------------------------||



Eb Bb
Gtrs I, II
||----------------------------------|-6-6---6-6---6-6---6-6---6-6-6-6-|
||o-8-8---8-8---8-8---8-8---8-8-8-8-|-6-6---6-6---6-6---6-6---6-6-6-6-|
||--8-8---8-8---8-8---8-8---8-8-8-8-|-7-7---7-7---7-7---7-7---7-7-7-7-|
||--8-8---8-8---8-8---8-8---8-8-8-8-|-8-8---8-8---8-8---8-8---8-8-8-8-|
||o-6-6---6-6---6-6---6-6---6-6-6-6-|-8-8---8-8---8-8---8-8---8-8-8-8-|
||----------------------------------|-6-6---6-6---6-6---6-6---6-6-6-6-|


Cm
Gtrs I, II
|--8--8----8--8----8--8----8--8----8--8--8--8-|
|--8--8----8--8----8--8----8--8----8--8--8--8-|
|--8--8----8--8----8--8----8--8----8--8--8--8-|
|-10-10---10-10---10-10---10-10---10-10-10-10-|
|-10-10---10-10---10-10---10-10---10-10-10-10-|
|--8--8----8--8----8--8----8--8----8--8--8--8-|


Ab
|-4-4---4-4---4-4---4-4---4-4-4-4---||
|-4-4---4-4---4-4---4-4---4-4-4-4--o||
|-5-5---5-5---5-5---5-5---5-5-5-5---||
|-6-6---6-6---6-6---6-6---6-6-6-6---||
|-6-6---6-6---6-6---6-6---6-6-6-6--o||
|-4-4---4-4---4-4---4-4---4-4-4-4---||


Breakdown
Ab
Gtr I
|----------|------------|-------------|-------------------|
|----------|------------|-------------|-------------------|
|----------|------------|-------------|-------------------|
|-6--------|-(6)--------|-6-----------|-(6)---------------|
|-6--------|-(6)--------|-6-----------|-(6)---------------|
|-4--------|-(4)--------|-4-----------|-(4)---------------|


Gtr II
|----------|------------|-------------|-------------------|
|----------|------------|-------------|-------------------|
|----------|------------|-------------|-------------------|
|-6--------|-(6)--------|-6---------6-|--6--6-6-6-6-6-----|
|-6--------|-(6)--------|-6---------6-|--6--6-6-6-6-6\----|
|-4--------|-(4)--------|-4---------4-|--4--4-4-4-4-4-----|


Bridge
Eb Bb Cm Ab
Gtr III
|------------|-6-------6--|--8--------8--|-4----|
|-8-------8--|-6-------6--|--8--------8--|-4----|
|-8-------8--|-7-------7--|--8--------8--|-5----|
|-8-------8--|-8-------8--|-10-------10--|-6----|
|-6-------6--|-8-------8--|-10-------10--|-6----|
|------------|-6-------6--|--8--------8--|-4----|


Eb Bb Cm Ab
|------------|-6-------6--|--8--------8--|-4-----------|
|-8-------8--|-6-------6--|--8--------8--|-4-----------|
|-8-------8--|-7-------7--|--8--------8--|-5-----------|
|-8-------8--|-8-------8--|-10-------10--|-6-----------|
|-6-------6--|-8-------8--|-10-------10--|-6-----------|
|------------|-6-------6--|--8--------8--|-4-----------|

Gtrs I, II
|------------|------------|--------------|-------------|
|------------|------------|--------------|-------------|
|------------|------------|--------------|------12\----|
|------------|------------|--------------|-------------|
|------------|------------|--------------|------10\----|
|------------|------------|--------------|-------------|


Refrein
Eb
Gtr I
||--------------------------------------|
||o-8-8-8-8-8-8-8-8-8-8-8-8--8--8--8--8-|
||--8-8-8-8-8-8-8-8-8-8-8-8--8--8--8--8-|
||--8-8-8-8-8-8-8-8-8-8-8-8--8--8--8--8-|
||o-6-6-6-6-6-6-6-6-6-6-6-6--6--6--6--6-|
||--------------------------------------|



Gtr II
||--------------------------------------|
||o-------------------------------------|
||--8-8-8-8-8-8-8-8-8-8-8-8S10-10-10-10S|
||--------------------------------------|
||o-6-6-6-6-6-6-6-6-6-6-6-6S=8--8--8--8S|
||--------------------------------------|


Gtr III
||--------------------------------------|
||o-8-8---8-8---8-8---8-8----8--8--8--8-|
||--8-8---8-8---8-8---8-8----8--8--8--8-|
||--8-8---8-8---8-8---8-8----8--8--8--8-|
||o-6-6---6-6---6-6---6-6----6--6--6--6-|
||--------------------------------------|


Bb
|--6--6--6--6--6--6--6--6--6--6--6--6--6--6--6--6--|
|--6--6--6--6--6--6--6--6--6--6--6--6--6--6--6--6--|
|--7--7--7--7--7--7--7--7--7--7--7--7--7--7--7--7--|
|--8--8--8--8--8--8--8--8--8--8--8--8--8--8--8--8--|
|--8--8--8--8--8--8--8--8--8--8--8--8--8--8--8--8--|
|--6--6--6--6--6--6--6--6--6--6--6--6--6--6--6--6--|



|--------------------------------------------------|
|--------------------------------------------------|
|-12-12-12-12-12-12-12-12-12-12-12-12-12-12-12-12\-|
|--------------------------------------------------|
|-10-10-10-10-10-10-10-10-10-10-10-10-10-10-10-10\-|
|--------------------------------------------------|



|--6--6-----6--6-----6--6-----6--6-----6--6--6--6--|
|--6--6-----6--6-----6--6-----6--6-----6--6--6--6--|
|--7--7-----7--7-----7--7-----7--7-----7--7--7--7--|
|--8--8-----8--8-----8--8-----8--8-----8--8--8--8--|
|--8--8-----8--8-----8--8-----8--8-----8--8--8--8--|
|--6--6-----6--6-----6--6-----6--6-----6--6--6--6--|


Cm
Gtr I
|--8--8--8--8--8--8--8--8--8--8--8--8--8--8--8--8--|
|--8--8--8--8--8--8--8--8--8--8--8--8--8--8--8--8--|
|--8--8--8--8--8--8--8--8--8--8--8--8--8--8--8--8--|
|-10-10-10-10-10-10-10-10-10-10-10-10-10-10-10-10--|
|-10-10-10-10-10-10-10-10-10-10-10-10-10-10-10-10--|
|--8--8--8--8--8--8--8--8--8--8--8--8--8--8--8--8--|



Gtr II
|--------------------------------------------------|
|--------------------------------------------------|
|-10-10-10-10-10-10-10-10-10-10-10-10-10-10-10-10\-|
|--------------------------------------------------|
|--8--8--8--8--8--8--8--8--8--8--8--8--8--8--8--8\-|
|--------------------------------------------------|


Gtr III
|--8--8-----8--8-----8--8-----8--8-----8--8--8--8--|
|--8--8-----8--8-----8--8-----8--8-----8--8--8--8--|
|--8--8-----8--8-----8--8-----8--8-----8--8--8--8--|
|-10-10----10-10----10-10----10-10----10-10-10-10--|
|-10-10----10-10----10-10----10-10----10-10-10-10--|
|--8--8-----8--8-----8--8-----8--8-----8--8--8--8--|


Ab
|-4-4-4-4-4-4-4-4-4-4-4-4-4-4-4-4---||
|-4-4-4-4-4-4-4-4-4-4-4-4-4-4-4-4--o||
|-5-5-5-5-5-5-5-5-5-5-5-5-5-5-5-5---||
|-6-6-6-6-6-6-6-6-6-6-6-6-6-6-6-6---||
|-6-6-6-6-6-6-6-6-6-6-6-6-6-6-6-6--o||
|-4-4-4-4-4-4-4-4-4-4-4-4-4-4-4-4---||


|-----------------------------------||
|----------------------------------o||
|-8-8-8-8-8-8-8-8-8-8-8-8-8-8-8-8---||
|-----------------------------------||
|-6-6-6-6-6-6-6-6-6-6-6-6-6-6-6-6--o||
|-----------------------------------||


|-4-4---4-4---4-4---4-4---4-4-4-4---||
|-4-4---4-4---4-4---4-4---4-4-4-4--o||
|-5-5---5-5---5-5---5-5---5-5-5-5---||
|-6-6---6-6---6-6---6-6---6-6-6-6---||
|-6-6---6-6---6-6---6-6---6-6-6-6--o||
|-4-4---4-4---4-4---4-4---4-4-4-4---||



Out-Refrein
Eb
Gtr I
||---------------------------------------|
||o-8-8---8-8---8-8---8-8-----8--8--8--8-|
||--8-8---8-8---8-8---8-8-----8--8--8--8-|
||--8-8---8-8---8-8---8-8-----8--8--8--8-|
||o-6-6---6-6---6-6---6-6-----6--6--6--6-|
||---------------------------------------|


Gtr II
||---------------------------------------|
||o--------------------------------------|
||--8-8-8-8-8-8-8-8-8-8-8S10-10-10-10S12-|
||---------------------------------------|
||o-6-6-6-6-6-6-6-6-6-6-6S=8--8--8--8S10-|
||---------------------------------------|


Gtr III
||---------------------------------------|
||o-8-------8---8---8--------------------|
||--8-------8---8---8--------------------|
||--8-------8---8---8--------------------|
||o-6-------6---6---6--------------------|
||---------------------------------------|


Bb
|--6--6-----6--6-----6--6-----6--6-----6--6--6--6--|
|--6--6-----6--6-----6--6-----6--6-----6--6--6--6--|
|--7--7-----7--7-----7--7-----7--7-----7--7--7--7--|
|--8--8-----8--8-----8--8-----8--8-----8--8--8--8--|
|--8--8-----8--8-----8--8-----8--8-----8--8--8--8--|
|--6--6-----6--6-----6--6-----6--6-----6--6--6--6--|



|--------------------------------------------------|
|--------------------------------------------------|
|-12-12-12-12-12-12-12-12-12-12-12-12-12-12-10-12\-|
|--------------------------------------------------|
|-10-10-10-10-10-10-10-10-10-10-10-10-10-10-10-10\-|
|--------------------------------------------------|


|--6-----------------------6-----------------------|
|--6-----------------------6-----------------------|
|--7-----------------------7-----------------------|
|--8-----------------------8-----------------------|
|--8-----------------------8-----------------------|
|--6-----------------------6-----------------------|


Cm
Gtr I
|--8--8-----8--8-----8--8-----8--8-----8--8--8--8--|
|--8--8-----8--8-----8--8-----8--8-----8--8--8--8--|
|--8--8-----8--8-----8--8-----8--8-----8--8--8--8--|
|-10-10----10-10----10-10----10-10----10-10-10-10--|
|-10-10----10-10----10-10----10-10----10-10-10-10--|
|--8--8-----8--8-----8--8-----8--8-----8--8--8--8--|

Grt II
|--------------------------------------------------|
|--------------------------------------------------|
|-10-10-10-10-10-10-10-10-10-10-10-10-10-10-10-10\-|
|--------------------------------------------------|
|--8--8--8--8--8--8--8--8--8--8--8--8--8--8--8--8\-|
|--------------------------------------------------|


Gtr III
|--8-----------8-----8-----8-----------------------|
|--8-----------8-----8-----8-----------------------|
|--8-----------8-----8-----8-----------------------|
|-10----------10----10----10-----------------------|
|-10----------10----10----10-----------------------|
|--8-----------8-----8-----8-----------------------|


Ab
|-4-4---4-4---4-4---4-4---4-4-4-4---||
|-4-4---4-4---4-4---4-4---4-4-4-4--o||
|-5-5---5-5---5-5---5-5---5-5-5-5---||
|-6-6---6-6---6-6---6-6---6-6-6-6---||
|-6-6---6-6---6-6---6-6---6-6-6-6--o||
|-4-4---4-4---4-4---4-4---4-4-4-4---||


|-----------------------------------||
|----------------------------------o||
|-8-8-8-8-8-8-8-8-8-8-8-8-8-8-8-8---||
|-----------------------------------||
|-6-6-6-6-6-6-6-6-6-6-6-6-6-6-6-6--o||
|-----------------------------------||


|-4---------------4-----------------||
|-4---------------4----------------o||
|-5---------------5-----------------||
|-6---------------6-----------------||
|-6---------------6----------------o||
|-4---------------4-----------------||


Outro
Ab
Gtrs I, II, III
|----------|------------|------------|--------*|
|----------|------------|------------|--------*|
|----------|------------|------------|--------*|
|-6--------|-(6)--------|-(6)--------|-(6)----*|
|-6--------|-(6)--------|-(6)--------|-(6)----*|
|-4--------|-(4)--------|-(4)--------|-(4)----*|

ProTabs promo.jpg

Onbeperkt en gratis toegang tot alle 25.000
Tabs & Chords en direct meespelen met

Artiest Liedje

...

Gitaarakkoorden all american rejects - Move along

Dankzij de bladmuziek op deze pagina wordt het een stuk makkelijker om met de gitaar mee te spelen met Move along van all american rejects De ProTabs van Gitaartabs worden door onze professionele gitaardocenten samengesteld. De tabs en chords zijn door leden zelf geplaatst. Deze undefined van all american rejects met Move along is voor je geschreven door [b]lack[a]ngel

Tabs & Chords van all american rejects - Move along

Bij de ProTabs delen we niet alleen de tablatuur maar ook de speelwijze van Move along Met een beetje gitaar ervaring moet je dit gitaarliedje zeker kunnen spelen, maar als het niet lukt zijn we er altijd om je te helpen. Door een gratis account aan te maken krijg je niet alleen toegang tot deze tab ,akkoorden & tabs van Move along maar kun je ook onbeperkt meespelen met een van de meer dan 25.000 andere tabs & chords in onze database.

Plaats opmerking

Verstuur

Beoordeel deze song

Rate UsDon’t love itNot greatGoodGreatLove itRate Us

Bedankt voor je beoordeling!