Swing swing

Gitaarliedjes, tabs & akkoorden (chords) Swing swing - all american rejects

Songtype: Tab

arrow&v

Markeer als favoriet

Favoriet

Gemarkeerd als favoriet

Capo:

0

all american rejects

all american rejects

Song
Album
Categorie

Swing swing

Downloads
1987
Niveau
2
Geplaatst door
[b]lack[a]ngel
ProTabs-promo.jpg

Intro - 2x
e|---------------------------------------------------------------------------|
B|---------------------------------------------------------------------------|
G|----------------------------5-5--5-----------------------------------------|
D|-5-5--5---5-5--5---2-2--2---5-5--5-----------------------------------------|
A|-5-5--5---5-5--5---2-2--2---3-3--3-----------------------------------------|
E|-3-3--3---2-2--2---0-0--0--------------------------------------------------|
G5 G5b E5 C5

Refrein 2x
e|---------------------------------------------------------------------------|
B|---------------------------------------------------------------------------|
G|------------------7-7-7-7-7-7-7-7-------------------5-5-5-5-5-5-5-5--------|
D|-5-5-5-5-5-5-5-5--7-7-7-7-7-7-7-7--2-2-2-2-2-2-2-2--5-5-5-5-5-5-5-5--------|
A|-5-5-5-5-5-5-5-5--5-5-5-5-5-5-5-5--2-2-2-2-2-2-2-2--3-3-3-3-3-3-3-3--------|
E|-3-3-3-3-3-3-3-3-------------------0-0-0-0-0-0-0-0-------------------------|
G5 D5 E5 C5

Couplet 8x
e|-3-3--3--------------------------------------------------------------------|
B|-3-3--3--------------------------------------------------------------------|
G|---------------------------------------------------------------------------|
D|---------------------------------------------------------------------------|
A|---------------------------------------------------------------------------|
E|---------------------------------------------------------------------------|
g5

Voor refrein
e|---------------------------------------------------------------------------|
B|---------------------------------------------------------------------------|
G|----------------------------------------------------5-5-5-5-5-5-5-5--------|
D|-5-5-5-5-5-5-5-5--5-5-5-5-5-5-5-5--2-2-2-2-2-2-2-2--5-5-5-5-5-5-5-5--------|
A|-5-5-5-5-5-5-5-5--5-5-5-5-5-5-5-5--2-2-2-2-2-2-2-2--3-3-3-3-3-3-3-3--------|
E|-3-3-3-3-3-3-3-3--3-3-3-3-3-3-3-3--0-0-0-0-0-0-0-0-------------------------|
G5 G5 E5 C5

Einde van voor refrein
e|---------------------------------------------------------------------------|
B|---------------------------------------------------------------------------|
G|----4-------5--------------------------------------------------------------|
D|----4-------5--------------------------------------------------------------|
A|----2-------3--------------------------------------------------------------|
E|--Hold----Hold-------------------------------------------------------------|
B5 C5

Solo
e|---------------------------------------------------14----------------------|
B|-8\15-15-15-15-15-15--13-12-12-12-12-12-12-13----------12-12\13------------|
G|-----------------------------------------------12--------------------------|
D|---------------------------------------------------------------------------|
A|---------------------------------------------------------------------------|
E|---------------------------------------------------------------------------|

e|----------------------------------------15---------------------------------|
B|-15-15-15-15-15-15--13-12-13-12-13--------------12-12-12-13-13-13-14-------|
G|------------------------------------12------12-----------------------------|
D|---------------------------------------------------------------------------|
A|---------------------------------------------------------------------------|
E|---------------------------------------------------------------------------|

Bridge
e|---------------------------------------------------------------------------|
B|---------------------------------------------------------------------------|
G|------------4-----5--------------5-5-5-5-5-5-5-5-5-5-5-5-5-5-5-5-----------|
D|-5-5--5-5---4-----5----5-5--5-5--5-5-5-5-5-5-5-5-5-5-5-5-5-5-5-5-----------|
A|-5-5--5-5---2-----3----5-5--5-5--3-3-3-3-3-3-3-3-3-3-3-3-3-3-3-3-----------|
E|-2-2--2-2--Hold--Hold--2-2--2-2---------(Hit 16 times)---------------------|
G5b G5b B5 C5 G5b G5b C5



Intro

Refrein

Couplet
*g5*
Days swiftly come and go.
I'm dreaming of her
She's seeing other guys
Emotions they stir
The sun is gone.
The nights are long
And I am left while the tears fall.

Coor Refrein
*G5*
Did you think that I would cry,
on the phone?
*E5*
Do you know what it feels like,
*C5*
being alone?
*B5* *C5*
I'll find someone new

Refrein
*G5* *D5*
Swing, Swing, Swing from the tangles of
*E5* *C5*
My heart is crushed by a former love
*G5* *D5* *E5*
Can you help me find a way
*C5*
To carry on again.

Couplet
*g5*
Wish cast into the sky
I'm moving on
Sweet beginnings do arise
She knows I was wrong
The notes are old,
They bend, they fold
and so do I to a new love.

Voor Refrein
*G5*
Did you think that I would cry,
on the phone?
*E5*
Do you know what it feels like,
*C5*
being alone?
*B5* *C5*
I'll find someone new

Refrein
*G5* *D5*
Swing, Swing, Swing from the tangles of
*E5* *C5*
My heart is crushed by a former love
*G5* *D5* *E5*
Can you help me find a way
*C5*
To carry on again.

Solo

Bridge
*G5-G5* *G5-G5*
Bury me
*B5-Hold* *C5-Hold*
(you thought your problems were gone)
*G5-G5* *G5-G5*
Carry me
*C5-16 times*
(away. away, away...)

Refrein 6x
*G5* *D5*
Swing, Swing, Swing from the tangles of
*E5* *C5*
My heart is crushed by a former love
*G5* *D5* *E5* .
Can you help me find a way
*C5*
To carry on again.
(geen solo, je hebt hier sowieso een tweede gitaar voor nodig)

ProTabs promo.jpg

Onbeperkt en gratis toegang tot alle 25.000
Tabs & Chords en direct meespelen met

Artiest Liedje

...

Gitaarakkoorden all american rejects - Swing swing

Dankzij de bladmuziek op deze pagina wordt het een stuk makkelijker om met de gitaar mee te spelen met Swing swing van all american rejects De ProTabs van Gitaartabs worden door onze professionele gitaardocenten samengesteld. De tabs en chords zijn door leden zelf geplaatst. Deze undefined van all american rejects met Swing swing is voor je geschreven door [b]lack[a]ngel

Tabs & Chords van all american rejects - Swing swing

Bij de ProTabs delen we niet alleen de tablatuur maar ook de speelwijze van Swing swing Met een beetje gitaar ervaring moet je dit gitaarliedje zeker kunnen spelen, maar als het niet lukt zijn we er altijd om je te helpen. Door een gratis account aan te maken krijg je niet alleen toegang tot deze tab ,akkoorden & tabs van Swing swing maar kun je ook onbeperkt meespelen met een van de meer dan 25.000 andere tabs & chords in onze database.

Plaats opmerking

Beoordeel deze song

Rate UsDon’t love itNot greatGoodGreatLove itRate Us

Bedankt voor je beoordeling!