The last song

Gitaarliedjes, tabs & akkoorden (chords) the last song - all american rejects

Songtype: Tab

arrow&v

Markeer als favoriet

Favoriet

Gemarkeerd als favoriet

Capo:

0

all american rejects

all american rejects

Song
Album
Categorie

the last song

Downloads
996
Niveau
2

Geplaatst door
kevin
ProTabs-promo.jpg

Kevin Bruin

All american rejects - The last song

Intro: Viool gedeelte

e---------8-9-----------8-9-----------8-9-------| e--9--|
B----9-6------9----9-6------9----9-6------9-6---| B------|
G--6--------------------------------------------| G------|
D----------------8-------------6----------------| 2X D-------|
A-----------------------------------------------| A-------|
E-----------------------------------------------| E-------|

Verse 1:

e--------------------------------------------------------------------------------------------------------------------|
B--------------------------------------------------------------------------------------------------------------------|
G-6--6-6-6-6-6-6-6-6-6-6-6-6-6--3--3-3-3-3-3-3-3-3-3-3-3-3-3---------------------------------------------------------|
D-6--6-6-6-6-6-6-6-6-6-6-6-6-6--3--3-3-3-3-3-3-3-3-3-3-3-3-3--6--6-6-6-6-6-6-6-6-6-6-6-6-6--4-4-4-4-4-4-4-4-4-4-4-4--|
A-4--4-4-4-4-4-4-4-4-4-4-4-4-4--1--1-1-1-1-1-1-1-1-1-1-1-1-1--6--6-6-6-6-6-6-6-6-6-6-6-6-6--4-4-4-4-4-4-4-4-4-4-4-4--|
E-------------------------------------------------------------4--4-4-4-4-4-4-4-4-4-4-4-4-4--2-2-2-2-2-2-2-2-2-2-2-2--|
Pm- - - - - - - - - - - - Pm- - - - - - - - - - - - Pm- - - - - - - - - - - -

Pre-Chorus:

e-------------------------------------------------|
B-------------------------------------------------|
G--3--3--3-------------6--6--6--------------------| 2X
D--3--3--3---4--4--4---6--6--6---6--6--6----------|
A--1--1--1---4--4--4---4--4--4---6--6--6----------|
E -----------2--2--2-------------4--4--4----------|

Chorus:

e------------------------------------------------------------------------------------------------|
B------------------------------------------------------------------------------------------------|
G--6-6-6-6-6-6-6-6-6-6-------------------------3-3-3-3-3-3-3-3-3-3-------------------------------|
D--6-6-6-6-6-6-6-6-6-6---4-4-4-4-4-4-4-4-4-4---3-3-3-3-3-3-3-3-3-3---6-6-6-6-6-6-6-6-6-6---------|
A--4-4-4-4-4-4-4-4-4-4---4-4-4-4-4-4-4-4-4-4---1-1-1-1-1-1-1-1-1-1---6-6-6-6-6-6-6-6-6-6---------|
E------------------------2-2-2-2-2-2-2-2-2-2-------------------------4-4-4-4-4-4-4-4-4-4---------|

Verse 2:

e------------------------------------------------------------------------------------------------|
B------------------------------------------------------------------------------------------------|
G--6---6-6-6-6-6-6-6-6-6-6-6-6-6---3---3-3-3-3-3-3-3-3-3-3-3-3-3---------------------------------|
D--6---6-6-6-6-6-6-6-6-6-6-6-6-6---3---3-3-3-3-3-3-3-3-3-3-3-3-3---6---6-6-6-6-6-6-6-6-6-6-6-6-6-| 2X
A--4---4-4-4-4-4-4-4-4-4-4-4-4-4---1---1-1-1-1-1-1-1-1-1-1-1-1-1---6---6-6-6-6-6-6-6-6-6-6-6-6-6-|
E------------------------------------------------------------------4---4-4-4-4-4-4-4-4-4-4-4-4-4-|
Pm- - - - - - - - - - - - Pm- - - - - - - - - - - - Pm- - - - - - - - - - - -

e--------------------------|
B--------------------------|
G--------------------------|
D--4-4-4-4-4-4-4-4-4-4-4-4-|
A--4-4-4-4-4-4-4-4-4-4-4-4-|
E--2-2-2-2-2-2-2-2-2-2-2-2-|

Pre-Chorus

Chorus

e---------8-9-----------8-9-----------8-9----9~--8~--6~--9~--3~---|
B----9-6------9----9-6------9----9-6------9-----------------------|
G--6--------------------------------------------------------------|
D----------------8-------------6----------------------------------|
A-----------------------------------------------------------------|
E-----------------------------------------------------------------|



e-----------------------------------------------------------------------------|
B-----------------------------------------------------------------------------|
G--3-3-3-3-3-3-3-3---------------------6-6-6-6-6-6-6-6------------------------| 2X
D--3-3-3-3-3-3-3-3---4-4-4-4-4-4-4-4---6-6-6-6-6-6-6-6---6-6-6-6-6-6-6-6------|
A--1-1-1-1-1-1-1-1---4-4-4-4-4-4-4-4---4-4-4-4-4-4-4-4---6-6-6-6-6-6-6-6------|
E -------------------2-2-2-2-2-2-2-2---------------------4-4-4-4-4-4-4-4------|
Pm- - - - - - - - - - - - - - - - - - - - - - - - - - - - - - - - - -

Chorus 2X

Outro:

e------|
B------|
G--6~--|
D--6~--|
A--4~--|
E------|



ProTabs promo.jpg

Onbeperkt en gratis toegang tot alle 25.000
Tabs & Chords en direct meespelen met

Artiest Liedje

...

Gitaarakkoorden all american rejects - the last song

Dankzij de bladmuziek op deze pagina wordt het een stuk makkelijker om met de gitaar mee te spelen met the last song van all american rejects De ProTabs van Gitaartabs worden door onze professionele gitaardocenten samengesteld. De tabs en chords zijn door leden zelf geplaatst. Deze undefined van all american rejects met the last song is voor je geschreven door kevin

Tabs & Chords van all american rejects - the last song

Bij de ProTabs delen we niet alleen de tablatuur maar ook de speelwijze van the last song Met een beetje gitaar ervaring moet je dit gitaarliedje zeker kunnen spelen, maar als het niet lukt zijn we er altijd om je te helpen. Door een gratis account aan te maken krijg je niet alleen toegang tot deze tab ,akkoorden & tabs van the last song maar kun je ook onbeperkt meespelen met een van de meer dan 25.000 andere tabs & chords in onze database.

Plaats opmerking

Verstuur

Beoordeel deze song

Rate UsDon’t love itNot greatGoodGreatLove itRate Us

Bedankt voor je beoordeling!