Alright

Gitaarliedjes, tabs & akkoorden (chords) Alright - anouk

Songtype: Tab

arrow&v

Markeer als favoriet

Favoriet

Gemarkeerd als favoriet

Capo:

0

anouk

anouk

Song
Album
Categorie

Alright

Downloads
1536
Niveau
2
Geplaatst door
lastwulf
ProTabs-promo.jpg

Als Er In Een Stuk geen Akkoorden Staan Zijn Die Hetzelfde Als in Een Eerder
Stuk Je Hoort Vanzelf Welk Akkoorden Schema Er Bij De Niet Geakkoneerde Stukken Moeten....Have Fun...lastwulf !

C#m = Cis Mineur = -X-4-6-6-5-4-
G#m = Gis Mineur = -4-6-6-4-4-4-
A9 = A Negen = -5-7-5-6-5-7-
E = E = -0-2-2-1-0-0-
A = A = -X-0-2-2-2-0-
B = B = -X-2-4-4-4-2-
C#m7 = Cis Zeven = -X-4-6-4-5-7-

--- - Fade Out
h - hammer on
p - pull off

Maat: 4/4



Anouk - Alright



Intro:
“C#m” “G#m” “A9” “E”
e|--------------------------------------------------|
B|--------------------------------------------------|
G|--------------------------------------------------|
D|-------------6-6-4------6-6-4---------------------|
A|---2---2-4---------7----------7-4-----------------|
E|-4---4---------------7--------------7-0h4-7-4h5p0-|
C#m” “G#m” “A9” “E”
e|--------------------------------------------------|
B|--------------------------------------------------|
G|--------------------------------------------------|
D|---6-6-4------6-6-4-------------------------------|
A|---------7----------7-4---------------------------|
E|-7---------7-------------7-0h4-7-4h5p0------------|

C#m G#m A
Oh, some things are better left unsaid
G#m
You’ll find a nice place to hide them
C#m G#m
But days like this
A G#m
There is just too much going on, yeah

C#m” “G#m” “A9” “E”
e|--------------------------------------------------|
B|--------------------------------------------------|
G|--------------------------------------------------|
D|--6-6-4------6-6-4--------------------------------|
A|--------7----------7-4--------------------2---2-4-|
E|----------7-------------7-0h4-7-4h5p0---4---4-----|

So I’m picking up the pieces of my past
But I can’t find no peace at all
So in other words
I am so ready to be found

C#m
So I’ll try and I might
G#m
Stand up and fight
A9 A E
To leave this place someday
C#m
All I need is that moment
G#m A9 A
To make me believe that you’re alive
E B B C#m
And then I’ll be alright, alright

A
Paradise grown cold
E
One hand on my door
B C#m
Way too high hopes
A
I can’t tell right from wrong
E
Show me how it’s done
B
Lord I need to be saved
E B B C#m
And then I’ll be alright, alright, yeah

C#m” “G#m” “A9” “E”
e|--------------------------------------------------|
B|--------------------------------------------------|
G|--------------------------------------------------|
D|--6-6-4------6-6-4--------------------------------|
A|--------7----------7-4--------------------2---2-4-|
E|----------7-------------7-0h4-7-4h5p0---4---4-----|

C#m G#m
Oh yeah, on days like these
A G#m
There is just too much going on
C#m G#m
So I try and I might Stand up and fight
A9 A E
To leave this place someday
C#m
All I need is this moment
G#m E
To make me believe that you’re alive
E B B C#m
And then I’ll be alright, alright

A
Paradise grown cold
E
One hand on my door
B C#m
Way too high hopes
A
I can’t tell right from wrong
E
Show me how it’s done
B
Lord I need to be saved
A E
And then I’ll be alright
B C#m
And then I’ll be alright
A E
And then I’ll be alright
B C#m
And then I’ll be alright

Outro: A | E | B | C#m |
A | E | B | C#m7--- |

ProTabs promo.jpg

Onbeperkt en gratis toegang tot alle 25.000
Tabs & Chords en direct meespelen met

Artiest Liedje

...

Gitaarakkoorden anouk - Alright

Dankzij de bladmuziek op deze pagina wordt het een stuk makkelijker om met de gitaar mee te spelen met Alright van anouk De ProTabs van Gitaartabs worden door onze professionele gitaardocenten samengesteld. De tabs en chords zijn door leden zelf geplaatst. Deze undefined van anouk met Alright is voor je geschreven door lastwulf

Tabs & Chords van anouk - Alright

Bij de ProTabs delen we niet alleen de tablatuur maar ook de speelwijze van Alright Met een beetje gitaar ervaring moet je dit gitaarliedje zeker kunnen spelen, maar als het niet lukt zijn we er altijd om je te helpen. Door een gratis account aan te maken krijg je niet alleen toegang tot deze tab ,akkoorden & tabs van Alright maar kun je ook onbeperkt meespelen met een van de meer dan 25.000 andere tabs & chords in onze database.

Plaats opmerking

Beoordeel deze song

Rate UsDon’t love itNot greatGoodGreatLove itRate Us

Bedankt voor je beoordeling!