top of page

Nobody's wife

Gitaarliedjes, tabs & akkoorden (chords) Nobody's wife - anouk

Songtype: Tab

Markeer als favoriet

Gemarkeerd als favoriet

Capo:

0

anouk

anouk

Song
Album
Categorie

Nobody's wife

Downloads
4785
Niveau
3
together alone

Geplaatst door
richard de jong en michael sorensen
ProTabs-promo.jpg



Authors : Anouk Teeuwe, Bart van Veen, Satindra Kalpoe
Publisher : Bouncin'Balls / TBM INT.C.V.
------------------------------------------------------------------------------
Tabbed by : Richard de Jong / The Netherlands / Richard.Jong@TIP.NL
and Michael Sorensen / Denmark / 5b300800@UV.HERNHS.DK
Last Change : April 6th, 1998
==============================================================================
Thanks To Daniel Manderbacka and Martti Hertzen for their input and view off
this song.
==============================================================================
Note If you have any comments regarding the song please let us know.
==============================================================================
Legend h = Hammer On
p = Pull-Off
b = Bend
/ = Slide Up/Down
<5> = Natural Harmonic
[5] = Artificial Harmonic
~ = Vibrato
tr = Trill
==============================================================================

Intro (Clean Guitar)
1 2 3 4 1 2 3 4 1 2 3 4 1 2 3 4
Em C Am G D/F#
E[----------0-----|----------------|----------------|----------------]
B[------0-------0-|------3---------|------0---1---0-|----------------]
G[----------------|----------0-----|----------------|------0---2---0-]
D[----2-----------|----2---------0-|----2-----------|----0-------0---]
A[----------------|3---------------|0---------------|----------------]
E[0---------------|----------------|----------------|3-------2-------]

Em C Am G D/F#
E[----------0-----|----------------|----------------|----------------]
B[------0-------0-|------3---------|------0---1---0-|----------------]
G[----------------|----------0-----|----------------|------0---2---0-]
D[----2-----------|----2---------0-|----2-----------|----0-------0---]
A[----------------|3---------------|0---------------|----------------]
E[0---------------|----------------|----------------|3-------2-------]
I am

Em C Am G D/F#
E[----------0-----|----------------|----------------|----------------]
B[------0-------0-|------3---------|------0---1---0-|----------------]
G[----------------|----------0-----|----------------|------0---2---0-]
D[----2-----------|----2---------0-|----2-----------|----0-------0---]
A[----------------|3---------------|0---------------|----------------]
E[0---------------|----------------|----------------|3-------2-------]
sorry for the times scream For the times
that I made you that I killed your

Em C Am G D/F#
E[----------0-----|----------------|----------------|----------------]
B[------0-------0-|------3---------|------0---1---0-|----------------]
G[----------------|----------0-----|----------------|------0---2---0-]
D[----2-----------|----2---------0-|----2-----------|----0-------0---]
A[----------------|3---------------|0---------------|----------------]
E[0---------------|----------------|----------------|3-------2-------]
dreams For the times whole world rumble
that I made your

{bass enter}
Em C Am G D/F#
E[----------0-----|----------------|----------------|----------------]
B[------0-------0-|------3---------|------0---1---0-|----------------]
G[----------------|----------0-----|----------------|------0---2---0-]
D[----2-----------|----2---------0-|----2-----------|----0-------0---]
A[----------------|3---------------|0---------------|----------------]
E[0---------------|----------------|----------------|3-------2-------]
For the times cry For the times
that I made you that I told you

{distortion guitar}
Em C F
E[----------0-----|----------------|----------------|----------------]
B[------0-------0-|------3---------|1---------------|----------------]
G[----------------|----------0-----|2---------------|----------------]
D[----2-----------|----2-----------|3---------------|----------------]
A[----------------|3---------------|3---------------|----------------]
E[0---------------|----------------|----------------|----------------]
lies For the times let you stumble
that I watched and

{drums enter}
E[----------------|----------------]
B[----------------|----------------]
G[----------------|----------------]
D[----------------|----------------]
A[----------------|----------------]
E[----------------|----------------]
It's to
{distortion guitar}
Em C Am G D
E[----------------|----------------|----------------|----------------]
B[----------------|----------------|----------------|----------------]
G[9---9---x---x-x-|5---5---x---x-x-|7-7--7-7----7-7-|3------7--------]
D[9---9---x---x-x-|5---5---x---x-x-|7-7--7-7----7-7-|5------7--------]
A[7---7---x---x-x-|3---3---x---x-x-|5-5--5-5----5-5-|5------5--------]
E[----------------|----------------|----------------|----------------]
bad but me What
that's goes a-

Em C Am G D
E[----------------|----------------|----------------|----------------]
B[----------------|----------------|----------------|----------------]
G[9---9---x---x-x-|5---5---x---x-x-|----------------|----------------]
D[9---9---x---x-x-|5---5---x---x-x-|7-7--7-7----7-7-|3------7--------]
A[7---7---x---x-x-|3---3---x---x-x-|7-7--7-7----7-7-|5------7--------]
E[----------------|----------------|5-5--5-5----5-5-|5------5--------]
round comes around you'll see That I can

Am D G C
E[----------------|----------------|----------------|----------------]
B[----------------|----------------|----------------|----------------]
G[----------------|7-----------x-x-|----------------|5-----------x-x-]
D[7-----------x-x-|7-----------x-x-|5------x----x-x-|5-----------x-x-]
A[7-----------x-x-|5-----------x-x-|5------x----x-x-|3-----------x-x-]
E[5-----------x-x-|----------------|3------x----x-x-|----------------]
carry the burden of pain
Cause it ain't the

Am D G C
E[----------------|----------------|----------------|----------------]
B[----------------|----------------|----------------|----------------]
G[----------------|7-----------x-x-|----------------|5-----------x-x-]
D[7-----------x-x-|7-----------x-x-|5------x----x-x-|5-----------x-x-]
A[7-----------x-x-|5-----------x-x-|5------x----x-x-|3-----------x-x-]
E[5-----------x-x-|----------------|3------x----x-x-|----------------]
first time that a man goes insane
When I spread

Am D G C
E[----------------|----------------|----------------|----------------]
B[----------------|----------------|----------------|----------------]
G[----------------|7-----------x-x-|----------------|5-----------x-x-]
D[7-----------x-x-|7-----------x-x-|5------x----x-x-|5-----------x-x-]
A[7-----------x-x-|5-----------x-x-|5------x----x-x-|3-----------x-x-]
E[5-----------x-x-|----------------|3------x----x-x-|----------------]
my wings to embrace him for live
Sucking out his

Am D G C
E[----------------|----------------|----------------|----------------]
B[----------------|----------------|----------------|----------------]
G[----------------|7-----------x-x-|----------------|5---------------]
D[7-----------x-x-|7-----------x-x-|5---------------|5---------------]
A[7-----------x-x-|5-----------x-x-|5---------------|3---------------]
E[5-----------x-x-|----------------|3---------------|----------------]
love ah, I'll never be nobody's wife

{clean guitar}
Em C Am G D/F#
E[----------0-----|----------------|----------------|----------------]
B[------0-------0-|------3---------|------0---1---0-|----------------]
G[----------------|----------0-----|----------------|------0---2-----]
D[----2-----------|----2---------0-|----2-----------|----0---------0-]
A[----------------|3---------------|0---------------|----------------]
E[0---------------|----------------|----------------|3-------2-------]
ya ya ya ya ya ya ya

Em C Am G D/F#
E[----------0-----|----------------|----------------|----------------]
B[------0-------0-|------3---------|------0---1---0-|----------------]
G[----------------|----------0-----|----------------|------0---2---0-]
D[----2-----------|----2---------0-|----2-----------|----0-------0---]
A[----------------|3---------------|0---------------|----------------]
E[0---------------|----------------|----------------|3-------2-------]
I am

Em C Am G D/F#
E[----------0-----|----------------|----------------|----------------]
B[------0-------0-|------3---------|------0---1---0-|----------------]
G[----------------|----------0-----|----------------|------0---2---0-]
D[----2-----------|----2---------0-|----2-----------|----0-------0---]
A[----------------|3---------------|0---------------|----------------]
E[0---------------|----------------|----------------|3-------2-------]
sorry for the times home Left you lying
that I didn't come in that bed a-

Em C Am G D/F#
E[----------0-----|----------------|----------------|----------------]
B[------0-------0-|------3---------|------0---1---0-|----------------]
G[----------------|----------0-----|----------------|------0---2---0-]
D[----2-----------|----2---------0-|----2-----------|----0-------0---]
A[----------------|3---------------|0---------------|----------------]
E[0---------------|----------------|----------------|3-------2-------]
lone Flying high in the needed my shoulder
sky when you

Em C Am G D/F#
E[----------0-----|----------------|----------------|----------------]
B[------0-------0-|------3---------|------0---1---0-|----------------]
G[----------------|----------0-----|----------------|------0---2---0-]
D[----2-----------|----2---------0-|----2-----------|----0-------0---]
A[----------------|3---------------|0---------------|----------------]
E[0---------------|----------------|----------------|3-------2-------]
You're like a stone neck, see cut it loose
hanging round my before if breaks my

Em C Am G D/F#
E[----------0-----|----------------|----------------|----------------]
B[------0-------0-|------3---------|------0---1---0-|----------------]
G[----------------|----------0-----|----------------|------0---2---0-]
D[----2-----------|----2---------0-|----2-----------|----0-------0---]
A[----------------|3---------------|0---------------|----------------]
E[0---------------|----------------|----------------|3-------2-------]
back, see say what I I grow older
I've gotta feel before

Em C Am G D/F#
E[----------0-----|----------------|----------------|----------------]
B[------0-------0-|------3---------|------0---1---0-|----------------]
G[----------------|----------0-----|----------------|------0---2---0-]
D[----2-----------|----2---------0-|----2-----------|----0-------0---]
A[----------------|3---------------|0---------------|----------------]
E[0---------------|----------------|----------------|3-------2-------]
Sorry, but it ain't ways tried but
gonna change my You know I've I'm still the

{distortion guitar}
Em C F
E[----------0-----|----------------|----------------|----------------]
B[------0-------0-|------3---------|1---------------|----------------]
G[----------------|----------0-----|2---------------|----------------]
D[----2-----------|----2-----------|3---------------|----------------]
A[----------------|3---------------|3---------------|----------------]
E[0---------------|----------------|----------------|----------------]
same I've got to do it my way

E[----------------|----------------]
B[----------------|----------------]
G[----------------|----------------]
D[----------------|----------------]
A[----------------|----------------]
E[----------------|----------------]
yeah It's to

{distortion guitar}
Em C Am G D
E[----------------|----------------|----------------|----------------]
B[----------------|----------------|----------------|----------------]
G[9---9---x---x-x-|5---5---x---x-x-|7-7--7-7----7-7-|3------7--------]
D[9---9---x---x-x-|5---5---x---x-x-|7-7--7-7----7-7-|5------7--------]
A[7---7---x---x-x-|3---3---x---x-x-|5-5--5-5----5-5-|5------5--------]
E[----------------|----------------|----------------|----------------]
bad but hey that's me What
goes a-

Em C Am G D
E[----------------|----------------|----------------|----------------]
B[----------------|----------------|----------------|----------------]
G[9---9---x---x-x-|5---5---x---x-x-|----------------|----------------]
D[9---9---x---x-x-|5---5---x---x-x-|7-7--7-7----7-7-|3------7--------]
A[7---7---x---x-x-|3---3---x---x-x-|7-7--7-7----7-7-|5------7--------]
E[----------------|----------------|5-5--5-5----5-5-|5------5--------]
round comes around you'll see That I can

Am D G C
E[----------------|----------------|----------------|----------------]
B[----------------|----------------|----------------|----------------]
G[----------------|7-----------x-x-|----------------|5-----------x-x-]
D[7-----------x-x-|7-----------x-x-|5------x----x-x-|5-----------x-x-]
A[7-----------x-x-|5-----------x-x-|5------x----x-x-|3-----------x-x-]
E[5-----------x-x-|----------------|3------x----x-x-|----------------]
carry the burden of pain
Cause it ain't the

Am D G C
E[----------------|----------------|----------------|----------------]
B[----------------|----------------|----------------|----------------]
G[----------------|7-----------x-x-|----------------|5-----------x-x-]
D[7-----------x-x-|7-----------x-x-|5------x----x-x-|5-----------x-x-]
A[7-----------x-x-|5-----------x-x-|5------x----x-x-|3-----------x-x-]
E[5-----------x-x-|----------------|3------x----x-x-|----------------]
first time now that a man goes insane
When I spread

Am D G C
E[----------------|----------------|----------------|----------------]
B[----------------|----------------|----------------|----------------]
G[----------------|7-----------x-x-|----------------|5-----------x-x-]
D[7-----------x-x-|7-----------x-x-|5------x----x-x-|5-----------x-x-]
A[7-----------x-x-|5-----------x-x-|5------x----x-x-|3-----------x-x-]
E[5-----------x-x-|----------------|3------x----x-x-|----------------]
my wings to embrace him for live
Sucking out his

Am D G C
E[----------------|----------------|----------------|----------------]
B[----------------|----------------|----------------|----------------]
G[----------------|7-----------x-x-|----------------|5---------------]
D[7-----------x-x-|7-----------x-x-|5---------------|5---------------]
A[7-----------x-x-|5-----------x-x-|5---------------|3---------------]
E[5-----------x-x-|----------------|3---------------|----------------]
love ah, I'll never be nobody's wife


1 2 3 4
Em
E[-------------------------------------------------------------------]
B[15b17----------------------------15b17-----------------------------]
G[-------------------------------------------------------------------]
D[-------------------------------------------------------------------]
A[-------------------------------------------------------------------]
E[-------------------------------------------------------------------]

C
E[-------------------------------------------------------------------]
B[-------------------------------------------------------------------]
G[-------------------------------------------------------------------]
D[-------------------------------------------------------------------]
A[-------------------------------------------------------------------]
E[-------------------------------------------------------------------]

Am
E[-------------------------------------------------------------------]
B[-------------------------------------------------------------------]
G[-------------------------------------------------------------------]
D[-------------------------------------------------------------------]
A[-------------------------------------------------------------------]
E[-------------------------------------------------------------------]

G D
E[-------------------------------------------------------------------]
B[-------------------------------------------------------------------]
G[-------------------------------------------------------------------]
D[-------------------------------------------------------------------]
A[-------------------------------------------------------------------]
E[-------------------------------------------------------------------]

Em
E[-------------------------------------------------------------------]
B[-------------------------------------------------------------------]
G[-------------------------------------------------------------------]
D[-------------------------------------------------------------------]
A[-------------------------------------------------------------------]
E[-------------------------------------------------------------------]

C
E[-------------------------------------------------------------------]
B[-------------------------------------------------------------------]
G[-------------------------------------------------------------------]
D[-------------------------------------------------------------------]
A[-------------------------------------------------------------------]
E[-------------------------------------------------------------------]

Am
E[-------------------------------------------------------------------]
B[-------------------------------------------------------------------]
G[-------------------------------------------------------------------]
D[-------------------------------------------------------------------]
A[-------------------------------------------------------------------]
E[-------------------------------------------------------------------]

G D
E[-------------------------------------------------------------------]
B[-------------------------------------------------------------------]
G[-------------------------------------------------------------------]
D[-------------------------------------------------------------------]
A[-------------------------------------------------------------------]
E[-------------------------------------------------------------------]

Em
E[-------------------------------------------------------------------]
B[-------------------------------------------------------------------]
G[-------------------------------------------------------------------]
D[-------------------------------------------------------------------]
A[-------------------------------------------------------------------]
E[-------------------------------------------------------------------]

C
E[-------------------------------------------------------------------]
B[-------------------------------------------------------------------]
G[-------------------------------------------------------------------]
D[-------------------------------------------------------------------]
A[-------------------------------------------------------------------]
E[-------------------------------------------------------------------]

Am
E[-------------------------------------------------------------------]
B[-------------------------------------------------------------------]
G[-------------------------------------------------------------------]
D[-------------------------------------------------------------------]
A[-------------------------------------------------------------------]
E[-------------------------------------------------------------------]

G D
E[-------------------------------------------------------------------]
B[-------------------------------------------------------------------]
G[-------------------------------------------------------------------]
D[-------------------------------------------------------------------]
A[-------------------------------------------------------------------]
E[-------------------------------------------------------------------]

Em
E[-------------------------------------------------------------------]
B[-------------------------------------------------------------------]
G[-------------------------------------------------------------------]
D[-------------------------------------------------------------------]
A[-------------------------------------------------------------------]
E[-------------------------------------------------------------------]

C
E[-------------------------------------------------------------------]
B[-------------------------------------------------------------------]
G[-------------------------------------------------------------------]
D[-------------------------------------------------------------------]
A[-------------------------------------------------------------------]
E[-------------------------------------------------------------------]

Am
E[-------------------------------------------------------------------]
B[-------------------------------------------------------------------]
G[-------------------------------------------------------------------]
D[-------------------------------------------------------------------]
A[-------------------------------------------------------------------]
E[-------------------------------------------------------------------]

G D
E[-------------------------------------------------------------------]
B[-------------------------------------------------------------------]
G[-------------------------------------------------------------------]
D[-------------------------------------------------------------------]
A[-------------------------------------------------------------------]
E[-------------------------------------------------------------------]
It's to

Em C Am G D
E[----------------|----------------|----------------|----------------]
B[----------------|----------------|----------------|----------------]
G[9---9---x---x-x-|5---5---x---x-x-|7-7--7-7----7-7-|3------7--------]
D[9---9---x---x-x-|5---5---x---x-x-|7-7--7-7----7-7-|5------7--------]
A[7---7---x---x-x-|3---3---x---x-x-|5-5--5-5----5-5-|5------5--------]
E[----------------|----------------|----------------|----------------]
bad but hey that's me What
goes a-

Em C Am G D
E[----------------|----------------|----------------|----------------]
B[----------------|----------------|----------------|----------------]
G[9---9---x---x-x-|5---5---x---x-x-|----------------|----------------]
D[9---9---x---x-x-|5---5---x---x-x-|7-7--7-7----7-7-|3------7--------]
A[7---7---x---x-x-|3---3---x---x-x-|7-7--7-7----7-7-|5------7--------]
E[----------------|----------------|5-5--5-5----5-5-|5------5--------]
round comes around you'll see That I can

Am D G C
E[----------------|----------------|----------------|----------------]
B[----------------|----------------|----------------|----------------]
G[----------------|7-----------x-x-|----------------|5-----------x-x-]
D[7-----------x-x-|7-----------x-x-|5------x----x-x-|5-----------x-x-]
A[7-----------x-x-|5-----------x-x-|5------x----x-x-|3-----------x-x-]
E[5-----------x-x-|----------------|3------x----x-x-|----------------]
carry the burden of pain
Cause it ain't the

Am D G C
E[----------------|----------------|----------------|----------------]
B[----------------|----------------|----------------|----------------]
G[----------------|7-----------x-x-|----------------|5-----------x-x-]
D[7-----------x-x-|7-----------x-x-|5------x----x-x-|5-----------x-x-]
A[7-----------x-x-|5-----------x-x-|5------x----x-x-|3-----------x-x-]
E[5-----------x-x-|----------------|3------x----x-x-|----------------]
first time oh now that a man goes insane
cause
when I spread my

Am D G C
E[----------------|----------------|----------------|----------------]
B[----------------|----------------|----------------|----------------]
G[----------------|7-----------x-x-|----------------|5-----------x-x-]
D[7-----------x-x-|7-----------x-x-|5------x----x-x-|5-----------x-x-]
A[7-----------x-x-|5-----------x-x-|5------x----x-x-|3-----------x-x-]
E[5-----------x-x-|----------------|3------x----x-x-|----------------]
wings to em- brace him for live
Sucking out his

Am D G C
E[----------------|----------------|----------------|----------------]
B[----------------|----------------|----------------|----------------]
G[------------7x--|----------------|----------------|5---------------]
D[----7x------7x--|----------------|5---------------|5---------------]
A[----7x------5x--|----------------|5---------------|3---------------]
E[----5x----------|----------------|3---------------|----------------]
love I, I'll never be nobody's wife

Em C Am G D
E[----------------|----------------|----------------|----------------]
B[----------------|----------------|----------------|----------------]
G[9---9---x---x-x-|5---5---x---x-x-|7-7--7-7----7-7-|3------7--------]
D[9---9---x---x-x-|5---5---x---x-x-|7-7--7-7----7-7-|5------7--------]
A[7---7---x---x-x-|3---3---x---x-x-|5-5--5-5----5-5-|5------5--------]
E[----------------|----------------|----------------|----------------]
yeah I'll never never
never be be gonna

Em C Am G D
E[----------------|----------------|----------------|----------------]
B[----------------|----------------|----------------|----------------]
G[9---9---x---x-x-|5---5---x---x-x-|----------------|----------------]
D[9---9---x---x-x-|5---5---x---x-x-|7-7--7-7----7-7-|3------7--------]
A[7---7---x---x-x-|3---3---x---x-x-|7-7--7-7----7-7-|5------7--------]
E[----------------|----------------|5-5--5-5----5-5-|5------5--------]
be never never gonna be nobody's wife
gonna be

Em C Am G D
E[----------------|----------------|----------------|----------------]
B[----------------|----------------|----------------|----------------]
G[9---9---x---x-x-|5---5---x---x-x-|7-7--7-7----7-7-|3------7--------]
D[9---9---x---x-x-|5---5---x---x-x-|7-7--7-7----7-7-|5------7--------]
A[7---7---x---x-x-|3---3---x---x-x-|5-5--5-5----5-5-|5------5--------]
E[----------------|----------------|----------------|----------------]
No- bo- dy yeah No- bo- dy yeah

Em C Am G D {fade}
E[----------------|----------------|----------------|----------------]
B[----------------|----------------|----------------|----------------]
G[9---9---x---x-x-|5---5---x---x-x-|----------------|----------------]
D[9---9---x---x-x-|5---5---x---x-x-|7-7--7-7----7-7-|3------7--------]
A[7---7---x---x-x-|3---3---x---x-x-|7-7--7-7----7-7-|5------7--------]
E[----------------|----------------|5-5--5-5----5-5-|5------5--------]
No No I'll never never
gonna be gonna be



Richard de Jong
Richard.Jong@TIP.NL
From - Wed May 20 18:22:49 1998
Return-Path: <bounce-dgf--2-harjan=wxs.nl@onelist.com>
Received: from smtp01.wxs.nl ([195.121.6.61]) by po01.wxs.nl
(Netscape Messaging Server 3.52) with ESMTP id AAA2C01
for <harjan@po01.wxs.nl>; Wed, 20 May 1998 14:56:25 +0200
Received: from onelist.com ([207.153.200.171]) by smtp01.wxs.nl
(Netscape Messaging Server 3.52) with SMTP id AAA2C1D
for <harjan@wxs.nl>; Wed, 20 May 1998 14:55:49 +0200
Received: (qmail 15249 invoked by alias); 20 May 1998 12:53:12 -0000
Mailing-List: list dgf@onelist.com; contact http://www.onelist.com
Date: Wed, 21 May 1997 14:31:00 +0000
Delivered-To: mailing list dgf@onelist.com
Precedence: bulk
From: r.breman@student.utwente.nl
Mime-Version: 1.0
Content-Type: text/plain; charset=ISO-8859-1
Content-transfer-encoding: 8bit
To: dgf@onelist.com
Subject: [dgf] tab: anouk-nobody's wife
Message-ID: <7717DAAC15AC.AAA2C1D@smtp01.wxs.nl>
X-Mozilla-Status: 0001
Content-Length: 30401

From: r.breman@student.utwente.nl

#----------------------------------PLEASE
NOTE--------------------------------#
#This file is the author's own work and represents their
interpretation of the#
#song. You may only use this file for private study, scholarship, or
research.#
#--------------------------------------------------------------------
---------#

From: Michael Sorensen <5b300800@uv.hernhs.dk>
Subject: a/anouk/nobodys_wife.tab
Date: Wed, 4 Mar 1998 11:47:36 +0100



=====================================================================
===========
Title : Nobody's Wife
Artist : Anouk
Album : Together Alone
Transcribed by : Michael S›rensen (MSGunde@post1.com)

This is the full version of Anouk's Kick-Ass 'Nobody's Wife'. I
worked out the
solo in about 2 hours, and I think it sounds pretty acurate.
Please E-Mail me at MSGunde@post1.com, me if I have made any
mistakes, or if
you don't agree with what I have transcriped.
I haven't noted how much each bend is, but it is easy to hear, so
just play
along to get the feel.
=====================================================================
===========

Legend
------

h = hammer-on
p = pull-off
b = bend
r = bend release
/ = slide up/down
<5> = natural harmonic
[5] = artifical harmonic
~ = vibrato
tr = trill

Chord Diagrams (low to high)
-----------------------------
E A D G B E
-----------------------------
Em 0 2 2 X X X
C X 3 5 5 X X
D X 5 7 7 X X
Am 5 7 7 X X X
G 3 5 5 X X X
G/F# 2 4 4 X X X
F/C X 3 3 2 1 X

Note:
0: Strike this string clean
x: Don't strike this string
1-7: Fret numbers

Example:
The cord 0 2 2 X X X would look like this in tablature:
E|------ E|------
B|------ B|------
G|------ and X 3 5 5 X X like this: G|--5---
D|--2--- D|--5---
A|--2--- A|--3---
E|--0--- E|------


=====================================================================
=


Intro (cln. guitar) C Am G G/F#
Tune down « step

E----------0-----|------------|------------------|------------------|
-
B-------0------0-|-------3----|----------0--1--0-|------------------|
-
G----0-----------|----0-----0-|------------------|-------0-----2----|
-
D----------------|------------|-0-----2----------|----0-----------0-|
-
A----------------|-3----------|----0-------------|------------------|
-
E--0-------------|------------|------------------|-3--------2-------|
-
(Rhy Fig. 1) (End Rhy. Fig. 1)

Em C Am G G/F#


E-----------0-----|------------|------------------|------------------
B--------0------0-|-------3----|-------0--1--0----|------------------
G-0---0-----------|----0-----0-|----------------0-|-------0-----2----
D-----------------|------------|----2-------------|----0-----------0-
A-----------------|-3----------|-0----------------|------------------
E---0-------------|------------|------------------|-3--------2-------
I'm sorry

Em C Am G G/F#


E-|-----------0-----|------------|------------------|----------------
B-|--------0------0-|-------3----|-------0--1--0----|----------------
G-|-0---0-----------|----0-----0-|----------------0-|-------0-----2--
D-|-----------------|------------|----2-------------|----0-----------
A-|-----------------|-3----------|-0----------------|----------------
E-|---0-------------|------------|------------------|-3--------2-----
for the times that I made you scream for the times that I killed

Em C Am G G/F#


E|---|-----------0-----|------------|------------------|-------------
B|---|--------0------0-|-------3----|-------0--1--0----|-------------
G|---|-0---0-----------|----0-----0-|----------------0-|-------0-----
D|-0-|-----------------|------------|----2-------------|----0--------
A|---|-----------------|-3----------|-0----------------|-------------
E|---|---0-------------|------------|------------------|-3--------2--
your dreams for the times that I made your whole world rumble

Em C Am G


E|------|-----------0-----|------------|------------------|----------
B|------|--------0------0-|-------3----|-------0--1--0----|----------
G|-2----|-----0-----------|----0-----0-|----------------0-|-------0--
D|----0-|-0---------------|------------|----2-------------|----0-----
A|------|-----------------|-3----------|-0----------------|----------
E|------|---0-------------|------------|------------------|-3--------
for the times that I made you cry for the times that

G/F# Em C F/C
v/Distortion Drums enter

E|---------|-----------0-----|------------|---------|----------------
B|---------|--------0------0-|-------3----|---------|-1--------------
G|----2----|-0---0-----------|----0-------|---------|-2--------------
D|-------0-|-----------------|----------0-|---------|-3--------------
A|---------|-----------------|-3----------|---------|-3--------------
E|-2-------|---0-------------|------------|---------|----------------
I told you lies for the times that I watched and let you stumble

Chorus: Em C Am G G/F#
w/Distorion

E-|-----------------|-----------------|----------------|-------------
B-|-----------------|-----------------|----------------|-------------
G-|-----------------|--5--5--x-x-x-x--|----------------|-------------
D-|--2--2--x-x-x-x--|--5--5--x-x-x-x--|--7-7--7--7--7--|--5----4-----
A-|--2--2--x-x-x-x--|--3--3--x-x-x-x--|--7-7--7--7--7--|--5----4---x-
E-|--0--0--x-x-x-x--|-----------------|--5-5--5--5--5--|--3----2---x-
It's too baad but that's me (Ha-ha....) what goes

Em C Am G G/F#


E-|-----------------|-----------------|----------------|-------------
B-|-----------------|-----------------|----------------|-------------
G-|-----------------|--5--5--x-x-x-x--|----------------|-------------
D-|--2--2--x-x-x-x--|--5--5--x-x-x-x--|--7-7--7--7--7--|--5----4-----
A-|--2--2--x-x-x-x--|--3--3--x-x-x-x--|--7-7--7--7--7--|--5----4---x-
E-|--0--0--x-x-x-x--|-----------------|--5-5--5--5--5--|--3----2---x-
around comes around you'll see that I

Am D G C


E-|------------|------------------|------------|-------------------|-
B-|------------|------------------|------------|-------------------|-
G-|------------|--7---x-7-7-------|------------|--5----x-5-5-------|-
D-|--7---7--x--|--7---x-7-7--x-x--|--5---5-----|--5----x-5-5--x-x--|-
A-|--7---7--x--|--5---x-5-5--x-x--|--5---5--x--|--3----x-3-3--x-x--|-
E-|--5---5--x--|------------------|--3---3--x--|-------------------|-
can carry the burden of pain cause it ain't

Am D G C


E|------------|------------------|------------|-------------------|--
B|------------|------------------|------------|-------------------|--
G|------------|--7---x-7-7-------|------------|--5----x-5-5-------|--
D|--7---7--x--|--7---x-7-7--x-x--|--5---5-----|--5----x-5-5--x-x--|--
A|--7---7--x--|--5---x-5-5--x-x--|--5---5--x--|--3----x-3-3--x-x--|--
E|--5---5--x--|------------------|--3---3--x--|-------------------|--
the first time that a man goes in - sane when I spread

Am D G C
Am


E|-----------|------------------|------------|-------------------|---
-
B|-----------|------------------|------------|-------------------|---
-
G|-----------|--7---x-7-7-------|------------|--5----x-5-5-------|---
-
D|-7---7--x--|--7---x-7-7--x-x--|--5---5-----|--5----x-5-5--x-x--|--7
-
A|-7---7--x--|--5---x-5-5--x-x--|--5---5--x--|--3----x-3-3--x-x--|--7
-
E|-5---5--x--|------------------|--3---3--x--|-------------------|--5
-
my wings to embrace him for life sucking out his
love

D G C (Acc. guitar)


E---------|------------------|------------|--------------|----------0
-
B---------|------------------|------------|--------------|-------0---
-
G---------|--7---x-7-7-------|------------|--5-----------|----0------
-
D---7--x--|--7---x-7-7--x-x--|--5---5-----|--5-----------|-----------
-
A---7--x--|--5---x-5-5--x-x--|--5---5--x--|--3-----------|-----------
-
E---5--x--|------------------|--3---3--x--|--------------|--0--------
-
ah, I'll never be nobody's wife

C Am G G/F# Em


E|-----|------------|------------------|------------------|----------
B|---0-|-------3----|----------0--1--0-|------------------|--------0-
G|-----|----0-----0-|------------------|-------0-----2----|-0---0----
D|-----|------------|-0-----2----------|----0-----------0-|----------
A|-----|-3----------|----0-------------|------------------|----------
E|-----|------------|------------------|-3--------2-------|---0------


C Am G G/F# Em
w/Fill 1 w/Fill 2

E--0-----|------------|------------------|------------------|--------
B------0-|-------3----|----------0--1--0-|------------------|--------
G--------|----0-----0-|------------------|-------0-----2----|-0---0--
D--------|------------|-0-----2----------|----0-----------0-|--------
A--------|-3----------|----0-------------|------------------|--------
E--------|------------|------------------|-3--------2-------|---0----
I' - m sorry

C Am G G/F# Em


E|----0-----|------------|------------------|------------------|-----
-
B|-0------0-|-------3----|----------0--1--0-|------------------|-----
-
G|----------|----0-----0-|------------------|-------0-----2----|-0--0
-
D|----------|------------|-0-----2----------|----0-----------0-|-----
-
A|----------|-3----------|----0-------------|------------------|-----
-
E|----------|------------|------------------|-3--------2-------|--0--
-
for the times that I did'nt come home left you lying in that bed


C Am G G/F# Em
w/Fill 3

E-----0-----|------------|------------------|------------------|-----
B--0------0-|-------3----|----------0--1--0-|------------------|-----
G-----------|----0-----0-|------------------|-------0-----2----|-0---
D-----------|------------|-0-----2----------|----0-----------0-|-----
A-----------|-3----------|----0-------------|------------------|-----
E-----------|------------|------------------|-3--------2-------|---0-
alone flying high in the sky when you needed my shoulder

C Am G G/F#
w/Fill 1

E|-------0-----|------------|------------------|------------------|--
-
B|----0------0-|-------3----|----------0--1--0-|------------------|--
-
G|-0-----------|----0-----0-|------------------|-------0-----2----|-0
-
D|-------------|------------|-0-----2----------|----0-----------0-|--
-
A|-------------|-3----------|----0-------------|------------------|--
-
E|-------------|------------|------------------|-3--------2-------|--
-
You're like a stone hanging round my neck, see cut it loose before
it

Em C Am G G/F#


E|---------0-----|------------|------------------|------------------|
-
B|------0------0-|-------3----|----------0--1--0-|------------------|
-
G|---0-----------|----0-----0-|------------------|-------0-----2----|
-
D|---------------|------------|-0-----2----------|----0-----------0-|
-
A|---------------|-3----------|----0-------------|------------------|
-
E|-0-------------|------------|------------------|-3--------2-------|
-
breaks my back, see I've gotta say what I feel before I crow older

Em C Am G G/F#


E-----------0-----|------------|------------------|------------------
B--------0------0-|-------3----|----------0--1--0-|------------------
G-0---0-----------|----0-----0-|------------------|-------0-----2----
D-----------------|------------|-0-----2----------|----0-----------0-
A-----------------|-3----------|----0-------------|------------------
E---0-------------|------------|------------------|-3--------2-------
Sorry but I ain't gonna change my way you know I've tried but I'm

Em C F/C Chorus: Em
w/Distortion w/Distortion

E-|-----------0-----|------------|------------|-------------|--------
B-|--------0------0-|-------3----|-1----------|-------------|--------
G-|-0---0-----------|----0-------|-2----------|-------------|--------
D-|-----------------|----------0-|-3----------|-------------|--2--2--
A-|-----------------|-3----------|-3----------|-------------|--2--2--
E-|---0-------------|------------|------------|-------------|--0--0--
still the same I've got to doit my way It's to ba-ad

C Am G G/F# Em


E|----------|-----------------|----------------|-------------|-------
B|----------|-----------------|----------------|-------------|-------
G|----------|--5--5--x-x-x-x--|----------------|-------------|-------
D|-x-x-x-x--|--5--5--x-x-x-x--|--7-7--7--7--7--|--5----4-----|--2--2-
A|-x-x-x-x--|--3--3--x-x-x-x--|--7-7--7--7--7--|--5----4---x-|--2--2-
E|-x-x-x-x--|-----------------|--5-5--5--5--5--|--3----2---x-|--0--0-
but that's me what goes a - round

C Am G G/F# Am


E|-----------|-----------------|----------------|-------------|------
B|-----------|-----------------|----------------|-------------|------
G|-----------|--5--5--x-x-x-x--|----------------|-------------|------
D|--x-x-x-x--|--5--5--x-x-x-x--|--7-7--7--7--7--|--5----4-----|--7---
A|--x-x-x-x--|--3--3--x-x-x-x--|--7-7--7--7--7--|--5----4---x-|--7---
E|--x-x-x-x--|-----------------|--5-5--5--5--5--|--3----2---x-|--5---
comes around you'll see that I can carry

D G C Am


E|-------|------------------|------------|-------------------|-------
-
B|-------|------------------|------------|-------------------|-------
-
G|-------|--7---x-7-7-------|------------|--5----x-5-5-------|-------
-
D|-7--x--|--7---x-7-7--x-x--|--5---5-----|--5----x-5-5--x-x--|--7---7
-
A|-7--x--|--5---x-5-5--x-x--|--5---5--x--|--3----x-3-3--x-x--|--7---7
-
E|-5--x--|------------------|--3---3--x--|-------------------|--5---5
-
the burden of pain cause it ain't the
first

D G C Am


E|-----|------------------|------------|-------------------|---------
B|-----|------------------|------------|-------------------|---------
G|-----|--7---x-7-7-------|------------|--5----x-5-5-------|---------
D|--x--|--7---x-7-7--x-x--|--5---5-----|--5----x-5-5--x-x--|--7---7--
A|--x--|--5---x-5-5--x-x--|--5---5--x--|--3----x-3-3--x-x--|--7---7--
E|--x--|------------------|--3---3--x--|-------------------|--5---5--
time that a man goes in - sane when I spread my wings

D G C Am
w/Fill 4

E|----|------------------|------------|-------------------|----------
-
B|----|------------------|------------|-------------------|----------
-
G|----|--7---x-7-7-------|------------|--5----x-5-5-------|----------
-
D|-x--|--7---x-7-7--x-x--|--5---5-----|--5----x-5-5--x-x--|--7---7--x
-
A|-x--|--5---x-5-5--x-x--|--5---5--x--|--3----x-3-3--x-x--|--7---7--x
-
E|-x--|------------------|--3---3--x--|-------------------|--5---5--x
-
to embrace him for life I'm sucking out his love ah,

D G C Solo Em
Guitar

E--|------------------|------------|--------------|------------------
-
B--|------------------|------------|--------------|--15b17--15b17----
-
G--|--7---x-7-7-------|------------|--5-----------|------------------
-
D--|--7---x-7-7--x-x--|--5---5-----|--5-----------|------------------
-
A--|--5---x-5-5--x-x--|--5---5--x--|--3-----------|------------------
-
E--|------------------|--3---3--x--|--------------|------------------
-
I'll never be no - body's wife yeah

C Am


E|-------------------------------------------------------------|-----
-
B|--15b17r(15)p12----12----------------------------------------|-----
-
G|----------------14----14b16r(14)p12-------14b16r(14)p12------|-----
-
D|------------------------------------14-12---------------14---|-12--
-
A|-------------------------------------------------------------|-----
-
E|-------------------------------------------------------------|-----
-


G G/F# Em C Am


E--------------------------------------------------------------------
-
B----------------------------------------12-12-x-12---x-12-x-12-x-12-
-
G----------------------------------------12-12-x-12---x-12-x-12-x-12-
-
D--------------------------------------------------------------------
-
A-14-12/10-12p10----10----10-12p10-12/14-----------------------------
-
E----------------12----12--------------------------------------------
-


G G/F# Em


E-----------------------------------------------15p12-15p12----12-15p
-
B-x-12-12-12-12-x-12-x-12-x-12-x-12-12-12-12-12-------------15-------
-
G-x-12-12-12-12-x-12-x-12-x-12-x-12-12-12-12-12----------------------
-
D--------------------------------------------------------------------
-
A--------------------------------------------------------------------
-
E--------------------------------------------------------------------
-


C Am


E|-12-15p12----12-15p12-15p12-----12-15p12-15p12----12-|-15p12-15p12-
-
B|----------15----------------15-----------------15----|-------------
-
G|-----------------------------------------------------|-------------
-
D|-----------------------------------------------------|-------------
-
A|-----------------------------------------------------|-------------
-
E|-----------------------------------------------------|-------------
-


G G/F# Em C


E|----12-------------------------------------------------------------
-
B|-15----15p12-15p12----12-------------------------------------------
-
G|-------------------14----14p12----14-14-14b-14b-12----------12b--14
-
D|-------------------------------14------------------14-14-14~-------
-
A|-------------------------------------------------------------------
-
E|-------------------------------------------------------------------
-


Am G G/F# Em


E|-------------12~-15-12-15-17b19-----17b19--17p15------|------------
B|-12-15-12-15-------------------------------------17~--|------------
G|------------------------------------------------------|------------
D|------------------------------------------------------|--2--2--x-x-
A|------------------------------------------------------|--2--2--x-x-
E|------------------------------------------------------|--0--0--x-x-
It's to ba- ad

C Am G G/F# Em


E|------|-----------------|----------------|-------------|-----------
-
B|------|-----------------|----------------|-------------|-----------
-
G|------|--5--5--x-x-x-x--|----------------|-------------|-----------
-
D|-x-x--|--5--5--x-x-x-x--|--7-7--7--7--7--|--5----4-----|--2--2--x-x
-
A|-x-x--|--3--3--x-x-x-x--|--7-7--7--7--7--|--5----4---x-|--2--2--x-x
-
E|-x-x--|-----------------|--5-5--5--5--5--|--3----2---x-|--0--0--x-x
-
but that's me what goes around

C Am G G/F# Am


E|------|-----------------|----------------|-------------|-----------
B|------|-----------------|----------------|-------------|-----------
G|------|--5--5--x-x-x-x--|----------------|-------------|-----------
D|-x-x--|--5--5--x-x-x-x--|--7-7--7--7--7--|--5----4-----|--7---7--x-
A|-x-x--|--3--3--x-x-x-x--|--7-7--7--7--7--|--5----4---x-|--7---7--x-
E|-x-x--|-----------------|--5-5--5--5--5--|--3----2---x-|--5---5--x-
comes around you'll see that I can carry

D G C Am


E--|------------------|------------|-------------------|------------|
-
B--|------------------|------------|-------------------|------------|
-
G--|--7---x-7-7-------|------------|--5----x-5-5-------|------------|
-
D--|--7---x-7-7--x-x--|--5---5-----|--5----x-5-5--x-x--|--7---7--x--|
-
A--|--5---x-5-5--x-x--|--5---5--x--|--3----x-3-3--x-x--|--7---7--x--|
-
E--|------------------|--3---3--x--|-------------------|--5---5--x--|
-
the burden of pain cause it ain't the first time

D G C Am D


E------------------|------------|-------------------|------------|---
-
B------------------|------------|-------------------|------------|---
-
G--7---x-7-7-------|------------|--5----x-5-5-------|------------|--7
-
D--7---x-7-7--x-x--|--5---5-----|--5----x-5-5--x-x--|--7---7--x--|--7
-
A--5---x-5-5--x-x--|--5---5--x--|--3----x-3-3--x-x--|--7---7--x--|--5
-
E------------------|--3---3--x--|-------------------|--5---5--x--|---
-
oh, no that a man goes insane cause when I spread my wings

G C Am
break

E---------------|------------|-------------------|-----------|-------
B---------------|------------|-------------------|-----------|-------
G---x-7-7-------|------------|--5----x-5-5-------|-----------|-------
D---x-7-7--x-x--|--5---5-----|--5----x-5-5--x-x--|-------7---|-------
A---x-5-5--x-x--|--5---5--x--|--3----x-3-3--x-x--|-------7---|-------
E---------------|--3---3--x--|-------------------|-------5---|-------
to embrace him for life I'm sucking out his love I, I'll

D G C Em C Am
break

E|-----|------------|---------------------|-----------------|--------
-
B|-----|------------|---------------------|-----------------|--------
-
G|-7---|------------|--5------------------|--5--5--x-x-x-x--|--------
-
D|-7---|--5---5--5--|--5---2--2--x-x-x-x--|--5--5--x-x-x-x--|--7-7--7
-
A|-7---|--5---5--5--|--3---2--2--x-x-x-x--|--3--3--x-x-x-x--|--7-7--7
-
E|-5---|--3---3--3--|------0--0--x-x-x-x--|-----------------|--5-5--5
-
never be no-bo-dy's wife I'll never be,

G G/F# Em C Am


E|--------|-----------|------------------|-----------------|---------
B|--------|-----------|------------------|-----------------|---------
G|--------|-----------|------------------|--5--5--x-x-x-x--|---------
D|--7--7--|--5----4---|---2--2--x-x-x-x--|--5--5--x-x-x-x--|--7-7--7-
A|--7--7--|--5----4---|---2--2--x-x-x-x--|--3--3--x-x-x-x--|--7-7--7-
E|--5--5--|--3----2---|---0--0--x-x-x-x--|-----------------|--5-5--5-
never be, never gonna be never gonna be never gonna be no - bo

G G/F# Em C Am
v/Fill 5

E|--------|-----------|------------------|-----------------|---------
B|--------|-----------|------------------|-----------------|---------
G|--------|-----------|------------------|--5--5--x-x-x-x--|---------
D|--7--7--|--5----4---|---2--2--x-x-x-x--|--5--5--x-x-x-x--|--7-7--7-
A|--7--7--|--5----4---|---2--2--x-x-x-x--|--3--3--x-x-x-x--|--7-7--7-
E|--5--5--|--3----2---|---0--0--x-x-x-x--|-----------------|--5-5--5-
-dy's wife no - bo - dy yeah no -

G G/F# Em C Am
Start fade

E|--------|-----------|------------------|-----------------|---------
B|--------|-----------|------------------|-----------------|---------
G|--------|-----------|------------------|--5--5--x-x-x-x--|---------
D|--7--7--|--5----4---|---2--2--x-x-x-x--|--5--5--x-x-x-x--|--7-7--7-
A|--7--7--|--5----4---|---2--2--x-x-x-x--|--3--3--x-x-x-x--|--7-7--7-
E|--5--5--|--3----2---|---0--0--x-x-x-x--|-----------------|--5-5--5-
bo - dy yeah no no [I'm never,

G G/F#
Fade out... Fill 1 Fill 2

E|--------|-----------|-----|*--12p14~-*|--|*------------------*|----
B|--------|-----------|-----|*---------*|--|*------------------*|----
G|--------|-----------|-----|*---------*|--|*--14b15r(14)p12~--*|----
D|--7--7--|--5----4---|-----|*---------*|--|*------------------*|----
A|--7--7--|--5----4---|-----|*---------*|--|*------------------*|----
E|--5--5--|--3----2---|-----|*---------*|--|*------------------*|----
gonna be, never gonna be]x2


Fill 3 Fill 4 next 4 bars

E|*--------------------------*|--*|---12tr(15)-------*|--------------
B|*--------------------------*|--*|------------------*|--------------
G|*--14---14p12~-----12~-----*|--*|------------------*|--------------
D|*---------------14-----14--*|--*|------------------*|--------------
A|*--------------------------*|--*|------------------*|--------------
E|*--------------------------*|--*|------------------*|--------------





E|*--------------|----------|-----|------------*|--------------------
B|*--------------|----------|-----|------------*|--------------------
G|*--------------|----14b16-|-----|---12-------*|--------------------
D|*----\12~------|----------|-----|------14~---*|--------------------
A|*--------------|----------|-----|------------*|--------------------
E|*--------------|----------|-----|------------*|--------------------
no - bo - dy yeah no - bo - dy yeah




====================================================================
=========
The file send in by eomneve@zeelandnet.nl is written
in E.
In my opinion the guitar should be down-tuned to
E-Flat.
=====================================================================
=========

Song : Nobody's Wife
Artist : Anouk
Version : CD Single
Album : Together Alone
Authors : Anouk Teeuwe, Bart van Veen, Satindra Kalpoe
Publisher : Bouncin'Balls / TBM INT.C.V.
---------------------------------------------------------------------
---------
Tabbed by : Richard de Jong, The Netherlands
Date : December 29, 1997
E-Mail : richard.jong@tip.nl

=====================================================================
=========

If you have any comments regarding the song please let me know.
This is the first time I tabbed a song in my life. I never had any
guitar lessons so probably there will be some mistakes.

This document only displays the patterns for the first guitar. If
anyone can tab the second guitar and the solo, please do so, and
let me know.

=====================================================================
=========

Tuning Tune Guitar in Eb (E-Flat)
(On the CD it's a bit more down than E-Flat.)

=====================================================================
=========

Patterns for First Guitar

Pattern 1

1.1 1.2 1.3 1.4

[----------0-----|----------------|----------------|----------------]

[-------0-------0|-------3--------|----------1-----|----------------]

[----0-----------|----0-----0-----|-------2-------0|-----0-----2----]

[----------------|---------------0|----2-----------|---0----------0-]

[----------------|3---------------|0---------------|----------------]

[0---------------|----------------|----------------|3-------2-------]

Pattern 2
2.1 2.2 2.3 2.4

[----------0-----|----------------|----------------|----------------]

[-------0-------0|-------3--------|1---------------|----------------]

[----0-----------|----0-----0-----|2---------------|----------------]
[----------------|------



ProTabs promo.jpg

Onbeperkt toegang tot alle 25.000
Liedjes & ProTabs! Speel direct mee met

Artiest Liedje

of

... laden actie pagina

...

Gitaarakkoorden anouk - Nobody's wife

Dankzij de bladmuziek op deze pagina wordt het een stuk makkelijker om met de gitaar mee te spelen met Nobody's wife van anouk De ProTabs van Gitaartabs worden door onze professionele gitaardocenten samengesteld. De tabs en chords zijn door leden zelf geplaatst. Deze undefined van anouk met Nobody's wife is voor je geschreven door richard de jong en michael sorensen

Tabs & Chords van anouk - Nobody's wife

Bij de ProTabs delen we niet alleen de tablatuur maar ook de speelwijze van Nobody's wife Met een beetje gitaar ervaring moet je dit gitaarliedje zeker kunnen spelen, maar als het niet lukt zijn we er altijd om je te helpen. Door een gratis account aan te maken krijg je niet alleen toegang tot deze tab ,akkoorden & tabs van Nobody's wife maar kun je ook onbeperkt meespelen met een van de meer dan 25.000 andere tabs & chords in onze database.

Plaats opmerking

Verstuur

Beoordeel deze song

Rate UsDon’t love itNot greatGoodGreatLove itRate Us

Bedankt voor je beoordeling! 

bottom of page