Nobody's wife

Gitaarliedjes, tabs & akkoorden (chords) Nobody's wife - anouk

Songtype: Tab

arrow&v

Markeer als favoriet

Favoriet

Gemarkeerd als favoriet

Capo:

0

anouk

anouk

Song
Album
Categorie

Nobody's wife

Downloads
4785
Niveau
3
together alone

Geplaatst door
richard de jong en michael sorensen
ProTabs-promo.jpg



Authors : Anouk Teeuwe, Bart van Veen, Satindra Kalpoe
Publisher : Bouncin'Balls / TBM INT.C.V.
------------------------------------------------------------------------------
Tabbed by : Richard de Jong / The Netherlands / Richard.Jong@TIP.NL
and Michael Sorensen / Denmark / 5b300800@UV.HERNHS.DK
Last Change : April 6th, 1998
==============================================================================
Thanks To Daniel Manderbacka and Martti Hertzen for their input and view off
this song.
==============================================================================
Note If you have any comments regarding the song please let us know.
==============================================================================
Legend h = Hammer On
p = Pull-Off
b = Bend
/ = Slide Up/Down
<5> = Natural Harmonic
[5] = Artificial Harmonic
~ = Vibrato
tr = Trill
==============================================================================

Intro (Clean Guitar)
1 2 3 4 1 2 3 4 1 2 3 4 1 2 3 4
Em C Am G D/F#
E[----------0-----|----------------|----------------|----------------]
B[------0-------0-|------3---------|------0---1---0-|----------------]
G[----------------|----------0-----|----------------|------0---2---0-]
D[----2-----------|----2---------0-|----2-----------|----0-------0---]
A[----------------|3---------------|0---------------|----------------]
E[0---------------|----------------|----------------|3-------2-------]

Em C Am G D/F#
E[----------0-----|----------------|----------------|----------------]
B[------0-------0-|------3---------|------0---1---0-|----------------]
G[----------------|----------0-----|----------------|------0---2---0-]
D[----2-----------|----2---------0-|----2-----------|----0-------0---]
A[----------------|3---------------|0---------------|----------------]
E[0---------------|----------------|----------------|3-------2-------]
I am

Em C Am G D/F#
E[----------0-----|----------------|----------------|----------------]
B[------0-------0-|------3---------|------0---1---0-|----------------]
G[----------------|----------0-----|----------------|------0---2---0-]
D[----2-----------|----2---------0-|----2-----------|----0-------0---]
A[----------------|3---------------|0---------------|----------------]
E[0---------------|----------------|----------------|3-------2-------]
sorry for the times scream For the times
that I made you that I killed your

Em C Am G D/F#
E[----------0-----|----------------|----------------|----------------]
B[------0-------0-|------3---------|------0---1---0-|----------------]
G[----------------|----------0-----|----------------|------0---2---0-]
D[----2-----------|----2---------0-|----2-----------|----0-------0---]
A[----------------|3---------------|0---------------|----------------]
E[0---------------|----------------|----------------|3-------2-------]
dreams For the times whole world rumble
that I made your

{bass enter}
Em C Am G D/F#
E[----------0-----|----------------|----------------|----------------]
B[------0-------0-|------3---------|------0---1---0-|----------------]
G[----------------|----------0-----|----------------|------0---2---0-]
D[----2-----------|----2---------0-|----2-----------|----0-------0---]
A[----------------|3---------------|0---------------|----------------]
E[0---------------|----------------|----------------|3-------2-------]
For the times cry For the times
that I made you that I told you

{distortion guitar}
Em C F
E[----------0-----|----------------|----------------|----------------]
B[------0-------0-|------3---------|1---------------|----------------]
G[----------------|----------0-----|2---------------|----------------]
D[----2-----------|----2-----------|3---------------|----------------]
A[----------------|3---------------|3---------------|----------------]
E[0---------------|----------------|----------------|----------------]
lies For the times let you stumble
that I watched and

{drums enter}
E[----------------|----------------]
B[----------------|----------------]
G[----------------|----------------]
D[----------------|----------------]
A[----------------|----------------]
E[----------------|----------------]
It's to
{distortion guitar}
Em C Am G D
E[----------------|----------------|----------------|----------------]
B[----------------|----------------|----------------|----------------]
G[9---9---x---x-x-|5---5---x---x-x-|7-7--7-7----7-7-|3------7--------]
D[9---9---x---x-x-|5---5---x---x-x-|7-7--7-7----7-7-|5------7--------]
A[7---7---x---x-x-|3---3---x---x-x-|5-5--5-5----5-5-|5------5--------]
E[----------------|----------------|----------------|----------------]
bad but me What
that's goes a-

Em C Am G D
E[----------------|----------------|----------------|----------------]
B[----------------|----------------|----------------|----------------]
G[9---9---x---x-x-|5---5---x---x-x-|----------------|----------------]
D[9---9---x---x-x-|5---5---x---x-x-|7-7--7-7----7-7-|3------7--------]
A[7---7---x---x-x-|3---3---x---x-x-|7-7--7-7----7-7-|5------7--------]
E[----------------|----------------|5-5--5-5----5-5-|5------5--------]
round comes around you'll see That I can

Am D G C
E[----------------|----------------|----------------|----------------]
B[----------------|----------------|----------------|----------------]
G[----------------|7-----------x-x-|----------------|5-----------x-x-]
D[7-----------x-x-|7-----------x-x-|5------x----x-x-|5-----------x-x-]
A[7-----------x-x-|5-----------x-x-|5------x----x-x-|3-----------x-x-]
E[5-----------x-x-|----------------|3------x----x-x-|----------------]
carry the burden of pain
Cause it ain't the

Am D G C
E[----------------|----------------|----------------|----------------]
B[----------------|----------------|----------------|----------------]
G[----------------|7-----------x-x-|----------------|5-----------x-x-]
D[7-----------x-x-|7-----------x-x-|5------x----x-x-|5-----------x-x-]
A[7-----------x-x-|5-----------x-x-|5------x----x-x-|3-----------x-x-]
E[5-----------x-x-|----------------|3------x----x-x-|----------------]
first time that a man goes insane
When I spread

Am D G C
E[----------------|----------------|----------------|----------------]
B[----------------|----------------|----------------|----------------]
G[----------------|7-----------x-x-|----------------|5-----------x-x-]
D[7-----------x-x-|7-----------x-x-|5------x----x-x-|5-----------x-x-]
A[7-----------x-x-|5-----------x-x-|5------x----x-x-|3-----------x-x-]
E[5-----------x-x-|----------------|3------x----x-x-|----------------]
my wings to embrace him for live
Sucking out his

Am D G C
E[----------------|----------------|----------------|----------------]
B[----------------|----------------|----------------|----------------]
G[----------------|7-----------x-x-|----------------|5---------------]
D[7-----------x-x-|7-----------x-x-|5---------------|5---------------]
A[7-----------x-x-|5-----------x-x-|5---------------|3---------------]
E[5-----------x-x-|----------------|3---------------|----------------]
love ah, I'll never be nobody's wife

{clean guitar}
Em C Am G D/F#
E[----------0-----|----------------|----------------|----------------]
B[------0-------0-|------3---------|------0---1---0-|----------------]
G[----------------|----------0-----|----------------|------0---2-----]
D[----2-----------|----2---------0-|----2-----------|----0---------0-]
A[----------------|3---------------|0---------------|----------------]
E[0---------------|----------------|----------------|3-------2-------]
ya ya ya ya ya ya ya

Em C Am G D/F#
E[----------0-----|----------------|----------------|----------------]
B[------0-------0-|------3---------|------0---1---0-|----------------]
G[----------------|----------0-----|----------------|------0---2---0-]
D[----2-----------|----2---------0-|----2-----------|----0-------0---]
A[----------------|3---------------|0---------------|----------------]
E[0---------------|----------------|----------------|3-------2-------]
I am

Em C Am G D/F#
E[----------0-----|----------------|----------------|----------------]
B[------0-------0-|------3---------|------0---1---0-|----------------]
G[----------------|----------0-----|----------------|------0---2---0-]
D[----2-----------|----2---------0-|----2-----------|----0-------0---]
A[----------------|3---------------|0---------------|----------------]
E[0---------------|----------------|----------------|3-------2-------]
sorry for the times home Left you lying
that I didn't come in that bed a-

Em C Am G D/F#
E[----------0-----|----------------|----------------|----------------]
B[------0-------0-|------3---------|------0---1---0-|----------------]
G[----------------|----------0-----|----------------|------0---2---0-]
D[----2-----------|----2---------0-|----2-----------|----0-------0---]
A[----------------|3---------------|0---------------|----------------]
E[0---------------|----------------|----------------|3-------2-------]
lone Flying high in the needed my shoulder
sky when you

Em C Am G D/F#
E[----------0-----|----------------|----------------|----------------]
B[------0-------0-|------3---------|------0---1---0-|----------------]
G[----------------|----------0-----|----------------|------0---2---0-]
D[----2-----------|----2---------0-|----2-----------|----0-------0---]
A[----------------|3---------------|0---------------|----------------]
E[0---------------|----------------|----------------|3-------2-------]
You're like a stone neck, see cut it loose
hanging round my before if breaks my

Em C Am G D/F#
E[----------0-----|----------------|----------------|----------------]
B[------0-------0-|------3---------|------0---1---0-|----------------]
G[----------------|----------0-----|----------------|------0---2---0-]
D[----2-----------|----2---------0-|----2-----------|----0-------0---]
A[----------------|3---------------|0---------------|----------------]
E[0---------------|----------------|----------------|3-------2-------]
back, see say what I I grow older
I've gotta feel before

Em C Am G D/F#
E[----------0-----|----------------|----------------|----------------]
B[------0-------0-|------3---------|------0---1---0-|----------------]
G[----------------|----------0-----|----------------|------0---2---0-]
D[----2-----------|----2---------0-|----2-----------|----0-------0---]
A[----------------|3---------------|0---------------|----------------]
E[0---------------|----------------|----------------|3-------2-------]
Sorry, but it ain't ways tried but
gonna change my You know I've I'm still the

{distortion guitar}
Em C F
E[----------0-----|----------------|----------------|----------------]
B[------0-------0-|------3---------|1---------------|----------------]
G[----------------|----------0-----|2---------------|----------------]
D[----2-----------|----2-----------|3---------------|----------------]
A[----------------|3---------------|3---------------|----------------]
E[0---------------|----------------|----------------|----------------]
same I've got to do it my way

E[----------------|----------------]
B[----------------|----------------]
G[----------------|----------------]
D[----------------|----------------]
A[----------------|----------------]
E[----------------|----------------]
yeah It's to

{distortion guitar}
Em C Am G D
E[----------------|----------------|----------------|----------------]
B[----------------|----------------|----------------|----------------]
G[9---9---x---x-x-|5---5---x---x-x-|7-7--7-7----7-7-|3------7--------]
D[9---9---x---x-x-|5---5---x---x-x-|7-7--7-7----7-7-|5------7--------]
A[7---7---x---x-x-|3---3---x---x-x-|5-5--5-5----5-5-|5------5--------]
E[----------------|----------------|----------------|----------------]
bad but hey that's me What
goes a-

Em C Am G D
E[----------------|----------------|----------------|----------------]
B[----------------|----------------|----------------|----------------]
G[9---9---x---x-x-|5---5---x---x-x-|----------------|----------------]
D[9---9---x---x-x-|5---5---x---x-x-|7-7--7-7----7-7-|3------7--------]
A[7---7---x---x-x-|3---3---x---x-x-|7-7--7-7----7-7-|5------7--------]
E[----------------|----------------|5-5--5-5----5-5-|5------5--------]
round comes around you'll see That I can

Am D G C
E[----------------|----------------|----------------|----------------]
B[----------------|----------------|----------------|----------------]
G[----------------|7-----------x-x-|----------------|5-----------x-x-]
D[7-----------x-x-|7-----------x-x-|5------x----x-x-|5-----------x-x-]
A[7-----------x-x-|5-----------x-x-|5------x----x-x-|3-----------x-x-]
E[5-----------x-x-|----------------|3------x----x-x-|----------------]
carry the burden of pain
Cause it ain't the

Am D G C
E[----------------|----------------|----------------|----------------]
B[----------------|----------------|----------------|----------------]
G[----------------|7-----------x-x-|----------------|5-----------x-x-]
D[7-----------x-x-|7-----------x-x-|5------x----x-x-|5-----------x-x-]
A[7-----------x-x-|5-----------x-x-|5------x----x-x-|3-----------x-x-]
E[5-----------x-x-|----------------|3------x----x-x-|----------------]
first time now that a man goes insane
When I spread

Am D G C
E[----------------|----------------|----------------|----------------]
B[----------------|----------------|----------------|----------------]
G[----------------|7-----------x-x-|----------------|5-----------x-x-]
D[7-----------x-x-|7-----------x-x-|5------x----x-x-|5-----------x-x-]
A[7-----------x-x-|5-----------x-x-|5------x----x-x-|3-----------x-x-]
E[5-----------x-x-|----------------|3------x----x-x-|----------------]
my wings to embrace him for live
Sucking out his

Am D G C
E[----------------|----------------|----------------|----------------]
B[----------------|----------------|----------------|----------------]
G[----------------|7-----------x-x-|----------------|5---------------]
D[7-----------x-x-|7-----------x-x-|5---------------|5---------------]
A[7-----------x-x-|5-----------x-x-|5---------------|3---------------]
E[5-----------x-x-|----------------|3---------------|----------------]
love ah, I'll never be nobody's wife


1 2 3 4
Em
E[-------------------------------------------------------------------]
B[15b17----------------------------15b17-----------------------------]
G[-------------------------------------------------------------------]
D[-------------------------------------------------------------------]
A[-------------------------------------------------------------------]
E[-------------------------------------------------------------------]

C
E[-------------------------------------------------------------------]
B[-------------------------------------------------------------------]
G[-------------------------------------------------------------------]
D[-------------------------------------------------------------------]
A[-------------------------------------------------------------------]
E[-------------------------------------------------------------------]

Am
E[-------------------------------------------------------------------]
B[-------------------------------------------------------------------]
G[-------------------------------------------------------------------]
D[-------------------------------------------------------------------]
A[-------------------------------------------------------------------]
E[-------------------------------------------------------------------]

G D
E[-------------------------------------------------------------------]
B[-------------------------------------------------------------------]
G[-------------------------------------------------------------------]
D[-------------------------------------------------------------------]
A[-------------------------------------------------------------------]
E[-------------------------------------------------------------------]

Em
E[-------------------------------------------------------------------]
B[-------------------------------------------------------------------]
G[-------------------------------------------------------------------]
D[-------------------------------------------------------------------]
A[-------------------------------------------------------------------]
E[-------------------------------------------------------------------]

C
E[-------------------------------------------------------------------]
B[-------------------------------------------------------------------]
G[-------------------------------------------------------------------]
D[-------------------------------------------------------------------]
A[-------------------------------------------------------------------]
E[-------------------------------------------------------------------]

Am
E[-------------------------------------------------------------------]
B[-------------------------------------------------------------------]
G[-------------------------------------------------------------------]
D[-------------------------------------------------------------------]
A[-------------------------------------------------------------------]
E[-------------------------------------------------------------------]

G D
E[-------------------------------------------------------------------]
B[-------------------------------------------------------------------]
G[-------------------------------------------------------------------]
D[-------------------------------------------------------------------]
A[-------------------------------------------------------------------]
E[-------------------------------------------------------------------]

Em
E[-------------------------------------------------------------------]
B[-------------------------------------------------------------------]
G[-------------------------------------------------------------------]
D[-------------------------------------------------------------------]
A[-------------------------------------------------------------------]
E[-------------------------------------------------------------------]

C
E[-------------------------------------------------------------------]
B[-------------------------------------------------------------------]
G[-------------------------------------------------------------------]
D[-------------------------------------------------------------------]
A[-------------------------------------------------------------------]
E[-------------------------------------------------------------------]

Am
E[-------------------------------------------------------------------]
B[-------------------------------------------------------------------]
G[-------------------------------------------------------------------]
D[-------------------------------------------------------------------]
A[-------------------------------------------------------------------]
E[-------------------------------------------------------------------]

G D
E[-------------------------------------------------------------------]
B[-------------------------------------------------------------------]
G[-------------------------------------------------------------------]
D[-------------------------------------------------------------------]
A[-------------------------------------------------------------------]
E[-------------------------------------------------------------------]

Em
E[-------------------------------------------------------------------]
B[-------------------------------------------------------------------]
G[-------------------------------------------------------------------]
D[-------------------------------------------------------------------]
A[-------------------------------------------------------------------]
E[-------------------------------------------------------------------]

C
E[-------------------------------------------------------------------]
B[-------------------------------------------------------------------]
G[-------------------------------------------------------------------]
D[-------------------------------------------------------------------]
A[-------------------------------------------------------------------]
E[-------------------------------------------------------------------]

Am
E[-------------------------------------------------------------------]
B[-------------------------------------------------------------------]
G[-------------------------------------------------------------------]
D[-------------------------------------------------------------------]
A[-------------------------------------------------------------------]
E[-------------------------------------------------------------------]

G D
E[-------------------------------------------------------------------]
B[-------------------------------------------------------------------]
G[-------------------------------------------------------------------]
D[-------------------------------------------------------------------]
A[-------------------------------------------------------------------]
E[-------------------------------------------------------------------]
It's to

Em C Am G D
E[----------------|----------------|----------------|----------------]
B[----------------|----------------|----------------|----------------]
G[9---9---x---x-x-|5---5---x---x-x-|7-7--7-7----7-7-|3------7--------]
D[9---9---x---x-x-|5---5---x---x-x-|7-7--7-7----7-7-|5------7--------]
A[7---7---x---x-x-|3---3---x---x-x-|5-5--5-5----5-5-|5------5--------]
E[----------------|----------------|----------------|----------------]
bad but hey that's me What
goes a-

Em C Am G D
E[----------------|----------------|----------------|----------------]
B[----------------|----------------|----------------|----------------]
G[9---9---x---x-x-|5---5---x---x-x-|----------------|----------------]
D[9---9---x---x-x-|5---5---x---x-x-|7-7--7-7----7-7-|3------7--------]
A[7---7---x---x-x-|3---3---x---x-x-|7-7--7-7----7-7-|5------7--------]
E[----------------|----------------|5-5--5-5----5-5-|5------5--------]
round comes around you'll see That I can

Am D G C
E[----------------|----------------|----------------|----------------]
B[----------------|----------------|----------------|----------------]
G[----------------|7-----------x-x-|----------------|5-----------x-x-]
D[7-----------x-x-|7-----------x-x-|5------x----x-x-|5-----------x-x-]
A[7-----------x-x-|5-----------x-x-|5------x----x-x-|3-----------x-x-]
E[5-----------x-x-|----------------|3------x----x-x-|----------------]
carry the burden of pain
Cause it ain't the

Am D G C
E[----------------|----------------|----------------|----------------]
B[----------------|----------------|----------------|----------------]
G[----------------|7-----------x-x-|----------------|5-----------x-x-]
D[7-----------x-x-|7-----------x-x-|5------x----x-x-|5-----------x-x-]
A[7-----------x-x-|5-----------x-x-|5------x----x-x-|3-----------x-x-]
E[5-----------x-x-|----------------|3------x----x-x-|----------------]
first time oh now that a man goes insane
cause
when I spread my

Am D G C
E[----------------|----------------|----------------|----------------]
B[----------------|----------------|----------------|----------------]
G[----------------|7-----------x-x-|----------------|5-----------x-x-]
D[7-----------x-x-|7-----------x-x-|5------x----x-x-|5-----------x-x-]
A[7-----------x-x-|5-----------x-x-|5------x----x-x-|3-----------x-x-]
E[5-----------x-x-|----------------|3------x----x-x-|----------------]
wings to em- brace him for live
Sucking out his

Am D G C
E[----------------|----------------|----------------|----------------]
B[----------------|----------------|----------------|----------------]
G[------------7x--|----------------|----------------|5---------------]
D[----7x------7x--|----------------|5---------------|5---------------]
A[----7x------5x--|----------------|5---------------|3---------------]
E[----5x----------|----------------|3---------------|----------------]
love I, I'll never be nobody's wife

Em C Am G D
E[----------------|----------------|----------------|----------------]
B[----------------|----------------|----------------|----------------]
G[9---9---x---x-x-|5---5---x---x-x-|7-7--7-7----7-7-|3------7--------]
D[9---9---x---x-x-|5---5---x---x-x-|7-7--7-7----7-7-|5------7--------]
A[7---7---x---x-x-|3---3---x---x-x-|5-5--5-5----5-5-|5------5--------]
E[----------------|----------------|----------------|----------------]
yeah I'll never never
never be be gonna

Em C Am G D
E[----------------|----------------|----------------|----------------]
B[----------------|----------------|----------------|----------------]
G[9---9---x---x-x-|5---5---x---x-x-|----------------|----------------]
D[9---9---x---x-x-|5---5---x---x-x-|7-7--7-7----7-7-|3------7--------]
A[7---7---x---x-x-|3---3---x---x-x-|7-7--7-7----7-7-|5------7--------]
E[----------------|----------------|5-5--5-5----5-5-|5------5--------]
be never never gonna be nobody's wife
gonna be

Em C Am G D
E[----------------|----------------|----------------|----------------]
B[----------------|----------------|----------------|----------------]
G[9---9---x---x-x-|5---5---x---x-x-|7-7--7-7----7-7-|3------7--------]
D[9---9---x---x-x-|5---5---x---x-x-|7-7--7-7----7-7-|5------7--------]
A[7---7---x---x-x-|3---3---x---x-x-|5-5--5-5----5-5-|5------5--------]
E[----------------|----------------|----------------|----------------]
No- bo- dy yeah No- bo- dy yeah

Em C Am G D {fade}
E[----------------|----------------|----------------|----------------]
B[----------------|----------------|----------------|----------------]
G[9---9---x---x-x-|5---5---x---x-x-|----------------|----------------]
D[9---9---x---x-x-|5---5---x---x-x-|7-7--7-7----7-7-|3------7--------]
A[7---7---x---x-x-|3---3---x---x-x-|7-7--7-7----7-7-|5------7--------]
E[----------------|----------------|5-5--5-5----5-5-|5------5--------]
No No I'll never never
gonna be gonna be



Richard de Jong
Richard.Jong@TIP.NL
From - Wed May 20 18:22:49 1998
Return-Path: <bounce-dgf--2-harjan=wxs.nl@onelist.com>
Received: from smtp01.wxs.nl ([195.121.6.61]) by po01.wxs.nl
(Netscape Messaging Server 3.52) with ESMTP id AAA2C01
for <harjan@po01.wxs.nl>; Wed, 20 May 1998 14:56:25 +0200
Received: from onelist.com ([207.153.200.171]) by smtp01.wxs.nl
(Netscape Messaging Server 3.52) with SMTP id AAA2C1D
for <harjan@wxs.nl>; Wed, 20 May 1998 14:55:49 +0200
Received: (qmail 15249 invoked by alias); 20 May 1998 12:53:12 -0000
Mailing-List: list dgf@onelist.com; contact http://www.onelist.com
Date: Wed, 21 May 1997 14:31:00 +0000
Delivered-To: mailing list dgf@onelist.com
Precedence: bulk
From: r.breman@student.utwente.nl
Mime-Version: 1.0
Content-Type: text/plain; charset=ISO-8859-1
Content-transfer-encoding: 8bit
To: dgf@onelist.com
Subject: [dgf] tab: anouk-nobody's wife
Message-ID: <7717DAAC15AC.AAA2C1D@smtp01.wxs.nl>
X-Mozilla-Status: 0001
Content-Length: 30401

From: r.breman@student.utwente.nl

#----------------------------------PLEASE
NOTE--------------------------------#
#This file is the author's own work and represents their
interpretation of the#
#song. You may only use this file for private study, scholarship, or
research.#
#--------------------------------------------------------------------
---------#

From: Michael Sorensen <5b300800@uv.hernhs.dk>
Subject: a/anouk/nobodys_wife.tab
Date: Wed, 4 Mar 1998 11:47:36 +0100



=====================================================================
===========
Title : Nobody's Wife
Artist : Anouk
Album : Together Alone
Transcribed by : Michael S›rensen (MSGunde@post1.com)

This is the full version of Anouk's Kick-Ass 'Nobody's Wife'. I
worked out the
solo in about 2 hours, and I think it sounds pretty acurate.
Please E-Mail me at MSGunde@post1.com, me if I have made any
mistakes, or if
you don't agree with what I have transcriped.
I haven't noted how much each bend is, but it is easy to hear, so
just play
along to get the feel.
=====================================================================
===========

Legend
------

h = hammer-on
p = pull-off
b = bend
r = bend release
/ = slide up/down
<5> = natural harmonic
[5] = artifical harmonic
~ = vibrato
tr = trill

Chord Diagrams (low to high)
-----------------------------
E A D G B E
-----------------------------
Em 0 2 2 X X X
C X 3 5 5 X X
D X 5 7 7 X X
Am 5 7 7 X X X
G 3 5 5 X X X
G/F# 2 4 4 X X X
F/C X 3 3 2 1 X

Note:
0: Strike this string clean
x: Don't strike this string
1-7: Fret numbers

Example:
The cord 0 2 2 X X X would look like this in tablature:
E|------ E|------
B|------ B|------
G|------ and X 3 5 5 X X like this: G|--5---
D|--2--- D|--5---
A|--2--- A|--3---
E|--0--- E|------


=====================================================================
=


Intro (cln. guitar) C Am G G/F#
Tune down « step

E----------0-----|------------|------------------|------------------|
-
B-------0------0-|-------3----|----------0--1--0-|------------------|
-
G----0-----------|----0-----0-|------------------|-------0-----2----|
-
D----------------|------------|-0-----2----------|----0-----------0-|
-
A----------------|-3----------|----0-------------|------------------|
-
E--0-------------|------------|------------------|-3--------2-------|
-
(Rhy Fig. 1) (End Rhy. Fig. 1)

Em C Am G G/F#


E-----------0-----|------------|------------------|------------------
B--------0------0-|-------3----|-------0--1--0----|------------------
G-0---0-----------|----0-----0-|----------------0-|-------0-----2----
D-----------------|------------|----2-------------|----0-----------0-
A-----------------|-3----------|-0----------------|------------------
E---0-------------|------------|------------------|-3--------2-------
I'm sorry

Em C Am G G/F#


E-|-----------0-----|------------|------------------|----------------
B-|--------0------0-|-------3----|-------0--1--0----|----------------
G-|-0---0-----------|----0-----0-|----------------0-|-------0-----2--
D-|-----------------|------------|----2-------------|----0-----------
A-|-----------------|-3----------|-0----------------|----------------
E-|---0-------------|------------|------------------|-3--------2-----
for the times that I made you scream for the times that I killed

Em C Am G G/F#


E|---|-----------0-----|------------|------------------|-------------
B|---|--------0------0-|-------3----|-------0--1--0----|-------------
G|---|-0---0-----------|----0-----0-|----------------0-|-------0-----
D|-0-|-----------------|------------|----2-------------|----0--------
A|---|-----------------|-3----------|-0----------------|-------------
E|---|---0-------------|------------|------------------|-3--------2--
your dreams for the times that I made your whole world rumble

Em C Am G


E|------|-----------0-----|------------|------------------|----------
B|------|--------0------0-|-------3----|-------0--1--0----|----------
G|-2----|-----0-----------|----0-----0-|----------------0-|-------0--
D|----0-|-0---------------|------------|----2-------------|----0-----
A|------|-----------------|-3----------|-0----------------|----------
E|------|---0-------------|------------|------------------|-3--------
for the times that I made you cry for the times that

G/F# Em C F/C
v/Distortion Drums enter

E|---------|-----------0-----|------------|---------|----------------
B|---------|--------0------0-|-------3----|---------|-1--------------
G|----2----|-0---0-----------|----0-------|---------|-2--------------
D|-------0-|-----------------|----------0-|---------|-3--------------
A|---------|-----------------|-3----------|---------|-3--------------
E|-2-------|---0-------------|------------|---------|----------------
I told you lies for the times that I watched and let you stumble

Chorus: Em C Am G G/F#
w/Distorion

E-|-----------------|-----------------|----------------|-------------
B-|-----------------|-----------------|----------------|-------------
G-|-----------------|--5--5--x-x-x-x--|----------------|-------------
D-|--2--2--x-x-x-x--|--5--5--x-x-x-x--|--7-7--7--7--7--|--5----4-----
A-|--2--2--x-x-x-x--|--3--3--x-x-x-x--|--7-7--7--7--7--|--5----4---x-
E-|--0--0--x-x-x-x--|-----------------|--5-5--5--5--5--|--3----2---x-
It's too baad but that's me (Ha-ha....) what goes

Em C Am G G/F#


E-|-----------------|-----------------|----------------|-------------
B-|-----------------|-----------------|----------------|-------------
G-|-----------------|--5--5--x-x-x-x--|----------------|-------------
D-|--2--2--x-x-x-x--|--5--5--x-x-x-x--|--7-7--7--7--7--|--5----4-----
A-|--2--2--x-x-x-x--|--3--3--x-x-x-x--|--7-7--7--7--7--|--5----4---x-
E-|--0--0--x-x-x-x--|-----------------|--5-5--5--5--5--|--3----2---x-
around comes around you'll see that I

Am D G C


E-|------------|------------------|------------|-------------------|-
B-|------------|------------------|------------|-------------------|-
G-|------------|--7---x-7-7-------|------------|--5----x-5-5-------|-
D-|--7---7--x--|--7---x-7-7--x-x--|--5---5-----|--5----x-5-5--x-x--|-
A-|--7---7--x--|--5---x-5-5--x-x--|--5---5--x--|--3----x-3-3--x-x--|-
E-|--5---5--x--|------------------|--3---3--x--|-------------------|-
can carry the burden of pain cause it ain't

Am D G C


E|------------|------------------|------------|-------------------|--
B|------------|------------------|------------|-------------------|--
G|------------|--7---x-7-7-------|------------|--5----x-5-5-------|--
D|--7---7--x--|--7---x-7-7--x-x--|--5---5-----|--5----x-5-5--x-x--|--
A|--7---7--x--|--5---x-5-5--x-x--|--5---5--x--|--3----x-3-3--x-x--|--
E|--5---5--x--|------------------|--3---3--x--|-------------------|--
the first time that a man goes in - sane when I spread

Am D G C
Am


E|-----------|------------------|------------|-------------------|---
-
B|-----------|------------------|------------|-------------------|---
-
G|-----------|--7---x-7-7-------|------------|--5----x-5-5-------|---
-
D|-7---7--x--|--7---x-7-7--x-x--|--5---5-----|--5----x-5-5--x-x--|--7
-
A|-7---7--x--|--5---x-5-5--x-x--|--5---5--x--|--3----x-3-3--x-x--|--7
-
E|-5---5--x--|------------------|--3---3--x--|-------------------|--5
-
my wings to embrace him for life sucking out his
love

D G C (Acc. guitar)


E---------|------------------|------------|--------------|----------0
-
B---------|------------------|------------|--------------|-------0---
-
G---------|--7---x-7-7-------|------------|--5-----------|----0------
-
D---7--x--|--7---x-7-7--x-x--|--5---5-----|--5-----------|-----------
-
A---7--x--|--5---x-5-5--x-x--|--5---5--x--|--3-----------|-----------
-
E---5--x--|------------------|--3---3--x--|--------------|--0--------
-
ah, I'll never be nobody's wife

C Am G G/F# Em


E|-----|------------|------------------|------------------|----------
B|---0-|-------3----|----------0--1--0-|------------------|--------0-
G|-----|----0-----0-|------------------|-------0-----2----|-0---0----
D|-----|------------|-0-----2----------|----0-----------0-|----------
A|-----|-3----------|----0-------------|------------------|----------
E|-----|------------|------------------|-3--------2-------|---0------