Hot

Gitaarliedjes, tabs & akkoorden (chords) Hot - avril lavigne

Songtype: Tab

arrow&v

Markeer als favoriet

Favoriet

Gemarkeerd als favoriet

Capo:

0

avril lavigne

avril lavigne

Song
Album
Categorie

Hot

Downloads
300
Niveau
1
the best damn thing

Geplaatst door
guitar_soof
ProTabs-promo.jpg

Intro 2x
e|---------------------------------|
B|---------------------------------|
G|------------8-8-xx--------6-6-xx-|
D|-xxx-6-6-xx-8-8-xx-8-8-xx-6-6-xx-|
A|-xxx-6-6-xx-6-6-xx-8-8-xx-4-4-xx-|
E|-xxx-4-4-xx--------6-6-xx--------|

Verse 1

e|-------------------------------------|
B|-------------------------------------|
G|-------------------------------------| 4x
D|-------------------55555555-66666666-|
A|-66666666-33333333-33333333-44444444-|
E|-44444444-11111111-------------------|
PM:........ ........ ........ ........

Pre-Chorus

e|----------|
B|----------|
G|----------|
D|-3-3--6-6-|
A|-1-1--4-4-|
E|----------|

Chorus

e|-----------------|
B|-----------------|
G|-8-8-----6-6-----| 2x
D|-8-8-8-8-6-6-6-6-|
A|-6-6-8-8-4-4-6-6-|
E|-----6-6-----4-4-|

Continued:

e|----------------------|-------------------|
B|----------------------|-------------------|
G|------8888------6666--|------8888------6~-|
D|-6666-8888-8888-6666--|-6666-8888-8888-6~-|
A|-6666-6666-8888-4444--|-6666-6666-8888-4~-|
E|-4444------6666-------|-4444------6666----|

Verse 2

Guitar 1
e|-------------------------------------|
B|-------------------------------------|
G|-------------------------------------| 4x
D|-------------------55555555-66666666-|
A|-66666666-33333333-33333333-44444444-|
E|-44444444-11111111-------------------|
PM:........ ........ ........ ........

Guitar 2
e|--------------------------------------------------------|
B|--------------------------------------------------------|
G|--------------------------------------------------------| 4x
D|-10--10-10-8--10--10-10-8--10--10-10-8--10-11-11--11-11-|
A|--------------------------------------------------------|
E|--------------------------------------------------------|
PM:. . . . . . . . . . . . . . . . .

Pre-Chorus

e|----------|
B|----------|
G|----------|
D|-3-3--6-6-|
A|-1-1--4-4-|
E|----------|

Chorus

e|-----------------|
B|-----------------|
G|-8-8-----6-6-----| 2x
D|-8-8-8-8-6-6-6-6-|
A|-6-6-8-8-4-4-6-6-|
E|-----6-6-----4-4-|

Continued:

e|----------------------|-------------------|
B|----------------------|-------------------|
G|------8888------6666--|------8888------6~-|
D|-6666-8888-8888-6666--|-6666-8888-8888-6~-|
A|-6666-6666-8888-4444--|-6666-6666-8888-4~-|
E|-4444------6666-------|-4444------6666----|

Interlude
e|-----------------------------------------------|
B|-----------------6h7p6-------------------------|
G|--------------6--------5-------------------8---|
D|-----8------6------------6--------6------8---8-|
A|---8---8--4---------------------6---6--6-------|
E|-6----------------------------4----------------|

e|----------------------------------------------------|
B|----------------6h7p6---------------------8h9p8-----|
G|--------------6-------5-----------------8-------8---|
D|-----8------6-----------6------6------8-----------8-|
A|---8---8--4------------------6---6--6---------------|
E|-6-------------------------4------------------------|

e|----------------------------------------------------|
B|----------------6h7p6---------------------8h9p8-----|
G|--------------6-------5-----------------8-------8---|
D|-----8------6-----------6------6------8-----------8-|
A|---8---8--4------------------6---6--6---------------|
E|-6-------------------------4------------------------|

e|-----------------------------|
B|-----------------6h7p6-------|
G|--------------6--------5-----|
D|-----8------6------------6-6-|
A|---8---8--4--------------6-6-|
E|-6-----------------------4-4-|

Chorus

e|-----------------|
B|-----------------|
G|-8-8-----6-6-----| 4x
D|-8-8-8-8-6-6-6-6-|
A|-6-6-8-8-4-4-6-6-|
E|-----6-6-----4-4-|

Continued:

e|----------------------|-------------------|
B|----------------------|-------------------|
G|------8888------6666--|------8888------6~-|
D|-6666-8888-8888-6666--|-6666-8888-8888-6~-|
A|-6666-6666-8888-4444--|-6666-6666-8888-4~-|
E|-4444------6666-------|-4444------6666----|

Let ring the C#5

ProTabs promo.jpg

Onbeperkt en gratis toegang tot alle 25.000
Tabs & Chords en direct meespelen met

Artiest Liedje

...

Gitaarakkoorden avril lavigne - Hot

Dankzij de bladmuziek op deze pagina wordt het een stuk makkelijker om met de gitaar mee te spelen met Hot van avril lavigne De ProTabs van Gitaartabs worden door onze professionele gitaardocenten samengesteld. De tabs en chords zijn door leden zelf geplaatst. Deze undefined van avril lavigne met Hot is voor je geschreven door guitar_soof

Tabs & Chords van avril lavigne - Hot

Bij de ProTabs delen we niet alleen de tablatuur maar ook de speelwijze van Hot Met een beetje gitaar ervaring moet je dit gitaarliedje zeker kunnen spelen, maar als het niet lukt zijn we er altijd om je te helpen. Door een gratis account aan te maken krijg je niet alleen toegang tot deze tab ,akkoorden & tabs van Hot maar kun je ook onbeperkt meespelen met een van de meer dan 25.000 andere tabs & chords in onze database.

Plaats opmerking

Verstuur

Beoordeel deze song

Rate UsDon’t love itNot greatGoodGreatLove itRate Us

Bedankt voor je beoordeling!