We are the world

Gitaarliedjes, tabs & akkoorden (chords) We are the world - band aid

Songtype: Tab

arrow&v

Markeer als favoriet

Favoriet

Gemarkeerd als favoriet

Capo:

0

band aid

band aid

Song
Album
Categorie

We are the world

Downloads
218
Niveau
1
Geplaatst door
gitaartabs
ProTabs-promo.jpg


Wat je gaat spelen met je gitaar is de gezongen tekst.
Er is niet een echt gitaarspel van het gehele nr.
Dus heb ik gekozen voor de tekst en die is dan ook heel erg herkenbaar.

Veel speel plezier gewenst.

We Are The World.

There comes a time
When we head a certain call
When the world must come together as one
There are people dying
And it's time to lend a hand to life
The greatest gift of all

We can't go on
Pretneding day by day
That someone, somewhere will soon make a change
We are all a part of
God's great big family
And the truth, you know love is all we need

[Chorus]
We are the world
We are the children
We are the ones who make a brighter day
So let's start giving
There's a choice we're making
We're saving our own lives
It's true we'll make a better day
Just you and me

Send them your heart
So they'll know that someone cares
And their lives will be stronger and free
As God has shown us by turning stone to bread
So we all must lend a helping hand

[Chorus]
We are the world
We are the children
We are the ones who make a brighter day
So let's start giving
There's a choice we're making
We're saving our own lives
It's true we'll make a better day
Just you and me

When you're down and out
There seems no hope at all
But if you just believe
There's no way we can fall
Well, well, well, well, let us realize
That a change will only come
When we stand together as one

[Chorus]
We are the world
We are the children
We are the ones who make a brighter day
So let's start giving
There's a choice we're making
We're saving our own lives
It's true we'll make a better day
Just you and me

e-0-0--0----0--1-1-3-3-0--0---------------0-3--5-0-0--5--3--5-3-1-0----1-0-1-3--3--0-0--0--1-1-3-3-0--0----------|
B----3----3----------------3-1-1-3-1-3-1-3-------------------------3--1---------------3--3-------------3-1-------|
G----------------------------------------------------------------------------------------------------------------|
D----------------------------------------------------------------------------------------------------------------|
A----------------------------------------------------------------------------------------------------------------|
E----------------------------------------------------------------------------------------------------------------|

e----------------0--3--5-0-0--5--3--5-3-1-0------1-0-1-3--3--0------0----------0---------------------------0-3---|
B-1--1-3-1-3-1-3----------------------------3--1---------------3-1----3-1--------3-1---------1-0-1-3-0-----------|
G------------------------------------------------------------------2------2-0--------2-2---2-----------2-0-------|
D----------------------------------------------------------------------------------------3-----------------------|
A----------------------------------------------------------------------------------------------------------------|
E----------------------------------------------------------------------------------------------------------------|

e-5-0-0-0-0--5--3-5-3-1-0--------------0------------0-0--0----0-1-1-3-3-0--0-------------------0--3--5-0-0--5----|
B-------------------------3--1---1---1---3-1-1-0--1-----3---3----------------3-1--1-3-1-3-1-3--------------------|
G------------------------------2---2-----------------------------------------------------------------------------|
D----------------------------------------------------------------------------------------------------------------|
A----------------------------------------------------------------------------------------------------------------|
E----------------------------------------------------------------------------------------------------------------|

e--3--5-3-1-0-------1-0-1-3--3-0---------0---------0--------------------------------5-0-0-0-0-5--3-5-1-0---------|
B-------------3--1---------------3--1-----3-1--------3-1--------1-0-1-3-0------0-3------------------------3--1---|
G-------------------------------------2-------2-0--------2-2---2-----------2-0---------------------------------2-|
D------------------------------------------------------------3---------------------------------------------------|
A----------------------------------------------------------------------------------------------------------------|
E----------------------------------------------------------------------------------------------------------------|

e-------0-----------------------1-1---------------------1-1-------0-3-8-7--5-0-0--5--3--3-3--3-0---1-1-3-1-3-1-3-3-|
B--1--1---3-1-1-0-1--1--4-4-4-1-----4-3-1--1-1--4-4-4--1----4-3-1---------------------------3---3------------------|
G---2--------------------------------------------------------------------------------------------------------------|
D------------------------------------------------------------------------------------------------------------------|
A------------------------------------------------------------------------------------------------------------------|
E------------------------------------------------------------------------------------------------------------------|

3 x spelen
e-|-0------0-------0----------------------0-35-0-0-0-0-5--3-5-3-1-0--------------0------------------0--------|------
B-|--3-1----3-1-----3-1------1-0-1-3-0------------------------------3--1---1---1---3-1-1-0-1------------3-1--|------
G-|#-----2------2-0----2-2--2---------2-0--------------------------------2---2------------------------------#|------
D-|#----------------------3---------------------------------------------------------------------------------#|------
A-|----------------------------------------------------------------------------------------------------------|------
E-|----------------------------------------------------------------------------------------------------------|------


/bij de 4e x speel je dit na de verticale streepen\
e--|------0---------0----------0----------------0-------2-5--7--------7--5-7-5-3-2--0-----------2-0----------------|
B--|--1--7----0---7-----0----7-----0-0--0-3-2-3---2-0---------7-7-7-7-----------------3-0-3-0-3------3-3-2---------|
G--|--------7---------7----------7----0---------------2------------------------------------------------------------|
D--|----------------------7----------------------------------------------------------------------------------------|
A--|---------------------------------------------------------------------------------------------------------------|
E--|---------------------------------------------------------------------------------------------------------------|

e----------0------0------0----------------0--------2-5--7--------7---5-7-5-3-2--0------------2-0-------------------|
B-----3--7----0--7--0---7---0-0---0-3-2-3---2-0-----------7-7-7-7------------------3-0-3-0-3-----3-3-2-------------|
G-----------7------7------7----0----------------2------------------------------------------------------------------|
D--------------------7---------------------------------------------------------------------------------------------|
A------------------------------------------------------------------------------------------------------------------|
E------------------------------------------------------------------------------------------------------------------|

e----------0------0------0----------------0--------2-5--7--------7---5-7-5-3-2--0------------2-0-------------------||
B-----3--7----0--7--0---7---0-0---0-3-2-3---2-0-----------7-7-7-7------------------3-0-3-0-3-----3-3-2--3----------||
G-----------7------7------7----0----------------2------------------------------------------------------------------||
D--------------------7---------------------------------------------------------------------------------------------||
A------------------------------------------------------------------------------------------------------------------||
E------------------------------------------------------------------------------------------------------------------||




ProTabs promo.jpg

Onbeperkt en gratis toegang tot alle 25.000
Tabs & Chords en direct meespelen met

Artiest Liedje

...

Gitaarakkoorden band aid - We are the world

Dankzij de bladmuziek op deze pagina wordt het een stuk makkelijker om met de gitaar mee te spelen met We are the world van band aid De ProTabs van Gitaartabs worden door onze professionele gitaardocenten samengesteld. De tabs en chords zijn door leden zelf geplaatst. Deze undefined van band aid met We are the world is voor je geschreven door gitaartabs

Tabs & Chords van band aid - We are the world

Bij de ProTabs delen we niet alleen de tablatuur maar ook de speelwijze van We are the world Met een beetje gitaar ervaring moet je dit gitaarliedje zeker kunnen spelen, maar als het niet lukt zijn we er altijd om je te helpen. Door een gratis account aan te maken krijg je niet alleen toegang tot deze tab ,akkoorden & tabs van We are the world maar kun je ook onbeperkt meespelen met een van de meer dan 25.000 andere tabs & chords in onze database.

Plaats opmerking

Beoordeel deze song

Rate UsDon’t love itNot greatGoodGreatLove itRate Us

Bedankt voor je beoordeling!