Something borrowed something blue

Gitaarliedjes, tabs & akkoorden (chords) Something borrowed something blue - ben lee

Songtype: Tab

arrow&v

Markeer als favoriet

Favoriet

Gemarkeerd als favoriet

Capo:

0

ben lee

ben lee

Song
Album
Categorie

Something borrowed something blue

Downloads
869
Niveau
3
Geplaatst door
sakoke
ProTabs-promo.jpg


-------------------------------------------------------------------------------
Something Borrowed Something Blue - BEN LEE
-------------------------------------------------------------------------------

e|----------------------------------|
B|---3-3b4rb3---1-----1-------------|
G|----------------------------------|
D|----------------------------------|
A|-3----------1---0-----------------|
E|-----------------1----------------|

then when he is about to end a verse, you play:
e|-------------|
B|---1------1--|
G|-------------|
D|-------------|
A|-1---0-------|
E|-------1-----|

Chorus (heavy fuzz distortion)
C5 Bb5 F5
e|----------------------------|
B|----------------------------|
G|-55555555--3333-------------|
D|-55555555--3333-3333--------| 3 times
A|-33333333--1111-3333--------|
E|----------------1111--------|
(I get the feeling i could leave you on the interstate)

then on the "Something Borrowed Something Bluee" bit, play:
Bb5 F5
e|-------------------|
B|-------------------|
G|-3333--------------|
D|-3333-3333---------|
A|-1111-3333---------|
E|------1111---------|

ProTabs promo.jpg

Onbeperkt en gratis toegang tot alle 25.000
Tabs & Chords en direct meespelen met

Artiest Liedje

...

Gitaarakkoorden ben lee - Something borrowed something blue

Dankzij de bladmuziek op deze pagina wordt het een stuk makkelijker om met de gitaar mee te spelen met Something borrowed something blue van ben lee De ProTabs van Gitaartabs worden door onze professionele gitaardocenten samengesteld. De tabs en chords zijn door leden zelf geplaatst. Deze undefined van ben lee met Something borrowed something blue is voor je geschreven door sakoke

Tabs & Chords van ben lee - Something borrowed something blue

Bij de ProTabs delen we niet alleen de tablatuur maar ook de speelwijze van Something borrowed something blue Met een beetje gitaar ervaring moet je dit gitaarliedje zeker kunnen spelen, maar als het niet lukt zijn we er altijd om je te helpen. Door een gratis account aan te maken krijg je niet alleen toegang tot deze tab ,akkoorden & tabs van Something borrowed something blue maar kun je ook onbeperkt meespelen met een van de meer dan 25.000 andere tabs & chords in onze database.

Plaats opmerking

Beoordeel deze song

Rate UsDon’t love itNot greatGoodGreatLove itRate Us

Bedankt voor je beoordeling!