Aan de kust

Gitaarliedjes, tabs & akkoorden (chords) Aan de kust - blof

Songtype: Tab

arrow&v

Markeer als favoriet

Favoriet

Gemarkeerd als favoriet

Capo:

0

blof

blof

Song
Album
Categorie

Aan de kust

Downloads
4818
Niveau
2
naakt onder de hemel

Geplaatst door
falconer
ProTabs-promo.jpg

Het nummer komt oorspronkelijk van het album "Naakt onder de hemel" maar
dit hoort bij de gitaarversie die terug te vinden is op "Helder".

G 320033 Am x02210 CII xxx553 Bm x24432
Em7 022022 C x32010 DII xxx775
Bm7/A x24235 D xx0232 Cadd9 x32033


G Em7 Bm7/A

E |--2----2--2-2--2----2--2-2------5--5------5--5--5--5--------------------
B |--2----2--2-2--2----2--2-2--2h3----3--2h3----3--3--3--------------------
G |--0----0--0-0--0----0--0-0--2------2--2------2--2--2--------------------
D |--0----0--0-0--2----2--2-2--4---------4------4--4--3--------------------
A |---------------2----2--2-2--2---------2------2-----2--------------------
E |------------------------------------------------------------------------


De zoute zee slaakt een diepe zilte zucht
Boven het vlakke land trilt stil de warme lucht
Iemand slaat soms onverwacht maar zeker op de vlucht
Alarmfase twee is hier nauwelijks nog berucht

Am Am Bm C

E |--0-------------------0-----2-----0-----------------
B |--0h1-----------------0h1---3-----1---------------------
G |--0h2-----------------0h2---4-----0----------------------
D |--0h2-----------------0h2---4-----2-----------------------
A |--0-------------------0-----2-----3-----------------
E |------------------------------------------------


Maar men weet het niet
D G CII CII/DII DII
En zwijgt van wat men hoort en ziet

G Em7 Bm7/A
Hier aan de kust, de Zeeuwse kust
G D Em7 D Cadd9
Waar de mensen onbewust zin in mosselfeesten krijgen
Em7 D Cadd9 Em7 D Cadd9
En van eten slechts nog zwijgen als ze zat zijn en voldaan
Am Bm C
Dan weer rustig slapen gaan

Hier aan de kust, de Zeeuwse kust
Waar een ieder onbewust in het Duits wordt aangesproken
Waar de ketting is gebroken en alle schepen zijn verbrand
Maar er is niets aan de hand

Vlissingen ademt zwaar en moedeloos vannacht
De haven is verlaten want er is nog maar een vracht
Die moet in het donker buitengaats worden gebracht
Gedenk de goede tijden van zuiverheid en kracht

Maar men weet het niet, en zwijgt van wat men hoort en ziet

Hier aan de kust, de Zeeuwse kust
Waar de zomer onbewust met een rotgang wordt genoten
En waar wild en onverdroten iedereen zijn gang kan gaan
Tot men zat is en voldaan

Hier aan de kust, de Zeeuwse kust
Waar de liefde van de lust steeds maar weer zal gaan verliezen
Omdat ze nooit kan kiezen tussen goed en niet zo kwaad
Maar dat is zoals het gaat

Hier aan de kust

ProTabs promo.jpg

Onbeperkt en gratis toegang tot alle 25.000
Tabs & Chords en direct meespelen met

Artiest Liedje

...

Gitaarakkoorden blof - Aan de kust

Dankzij de bladmuziek op deze pagina wordt het een stuk makkelijker om met de gitaar mee te spelen met Aan de kust van blof De ProTabs van Gitaartabs worden door onze professionele gitaardocenten samengesteld. De tabs en chords zijn door leden zelf geplaatst. Deze undefined van blof met Aan de kust is voor je geschreven door falconer

Tabs & Chords van blof - Aan de kust

Bij de ProTabs delen we niet alleen de tablatuur maar ook de speelwijze van Aan de kust Met een beetje gitaar ervaring moet je dit gitaarliedje zeker kunnen spelen, maar als het niet lukt zijn we er altijd om je te helpen. Door een gratis account aan te maken krijg je niet alleen toegang tot deze tab ,akkoorden & tabs van Aan de kust maar kun je ook onbeperkt meespelen met een van de meer dan 25.000 andere tabs & chords in onze database.

Plaats opmerking

Verstuur

Beoordeel deze song

Rate UsDon’t love itNot greatGoodGreatLove itRate Us

Bedankt voor je beoordeling!