Buit

Gitaarliedjes, tabs & akkoorden (chords) Buit - blof

Songtype: Tab

arrow&v

Markeer als favoriet

Favoriet

Gemarkeerd als favoriet

Capo:

0

blof

blof

Song
Album
Categorie

Buit

Downloads
1967
Niveau
3
naakt onder de hemel

Geplaatst door
jacco nijssen
ProTabs-promo.jpg

AKKOORDEN:
D7 X577XX F7 133XXX
E7 X799XX B7 X133XX
G7 355XXX C7 X355XX


1 INTRO)
E-|-----------------------------------------------|-
B-|-----------------------------------------------|-
G-|-----------------------------------------------|-
D-|-------12-----12\10----10--------10\8----8-(8)-|-
A-|-5/10-----10--------8-----8\7-7-------5--------|-
E-|-----------------------------------------------|-
| 4x |
|---------------- Let ring ---------------------|

2 COUPLET 1)
E-|-----------------------------------------------|-
B-|-----------------------------------------------|-
G-|-----------------------------------------------|-
D-|-------12-----12\10----10--------10\8----8-(8)-|-
A-|-5/10-----10--------8-----8\7-7-------5--------|-
E-|-----------------------------------------------|-
"Neem geen genoegen met een antwoord."
"Neem geen genoegen met wat geldt."
"Neem geen genoegen met de wereld."
"Neem geen genoegen met geweld."

D7 E7 D7 E7
E--------------------------------------------------
B--------------------------------------------------
G-----7-(7)------9-9\---------------7----------9\--
D-----7-(7)------9-9\---------------7----------9\--
A--5--5--5/(7)-7-7-7\------------5--5--5-(7)-7-7\--
E--------------------------------------------------
Alleen na 1e en 3e couplet

2 REFREIN)
D7 E7 D7 E7
E--------------------------------------------------
B--------------------------------------------------
G-----7-(7)------9-9\---------------7----------9\--
D-----7-(7)------9-9\---------------7----------9\--
A--5--5--5/(7)-7-7-7\------------5--5--5-(7)-7-7\--
E--------------------------------------------------
"Ik heb je lief."
"Voor jou geen ander."

C7 B7 G7 F7 G7 G7 F7 G7
E-----------------------------------------------------------------------
B-----------------------------------------------------------------------
G--5----------------3-3-3-3-3-3-----------------------------------------
D--5----------------3-3-3-3-3-3-------5--5--3--5--x-x--5--5--3--5--x-x--
A--3----------------1-0-1-0-1-1-------5--5--3--5--x-x--5--5--3--5--x-x--
E-------------------------------------3--3--1--3--x-x--3--3--1--3--x-x--
"Laten wij de buit verdelen."

G7
E---------------------------
B-------------------5H6P5---
G---------5-------5-------5-
D--5-5-5--5-----5-----------
A--5-5-5--3-----------------
E--3-3-3--------------------
"Deze nacht"

C7 B7 F7
E-----------------------------------------------------------------------
B-----------------------------------------------------------------------
G--5----------------3-3-3-3-3-3-----------------------------------2-----
D--5----------------3-3-3-3-3-3----3------------------------------2-----
A--3----------------1-0-1-0-1-1----3------------------------------0-----
E----------------------------------1------------------------------------
"Die kan niet het daglicht velen. Want we zijn zonder meer verdacht."


3 BRUG)
B7 C7 D7 C7 D7 C7 D7 C7
E-|--------------------------------------------------------------|-
B-|--------------------------------------------------------------|-
G-|-3-3-2-3---3-3-2-3\---5-5--5-5-7-7-5-7---7-7-5-7\---5-5-5-5\--|-
D-|-3-3-2-3---3-3-2-3\---5-5--5-5-7-7-5-7---7-7-5-7\---5-5-5-5\--|-
A-|-1-1-0-1---1-1-0-1\---3-3--3-3-5-5-3-5---5-5-3-5\---3-3-3-3\--|-
E-|--------------------------------------------------------------|-
2x

4 EINDE)
Zie brug




TEKST:

Neem geen genoegen met een antwoord
Neem geen genoegen met wat geldt
Neem geen genoegen met de wereld
Neem geen genoegen met geweld

Zonder plannen voor de toekomst
Door het heden geregeerd
Staan we boven ons verleden
Worden door ons vuur verteerd

Ik heb je lief
Voor jou geen ander

Laten wij de buit verdelen
Deze nacht
Die kan niet het daglicht velen
Want we zijn zonder meer verdacht

Staan we roerloos in het donker
Ruiken overal gevaar
In gedachten diep verzonken
Staan we roerloos naast elkaar

Neem niet aan wat ze je geven
Neem geen genoegen met wat geld
Neem geen genoegen met je leven
Als je niet krijgt wat je bestelt

Ik heb je lief
Voor jou geen ander

Laten wij de buit verdelen
Deze nacht
Die kan niet het daglicht velen
Want we zijn zonder meer verdacht

Staan we naakt onder de hemel
Dreigt er levensgroot gevaar
Denk aan ons verbond voor eeuwig
Als we weggaan bij elkaar

Ik heb je lief
Voor jou geen ander

Laten wij de buit verdelen
Deze nacht
Die kan niet het daglicht velen
Want we zijn zonder meer verdacht

Ik heb je lief!

ProTabs promo.jpg

Onbeperkt en gratis toegang tot alle 25.000
Tabs & Chords en direct meespelen met

Artiest Liedje

...

Gitaarakkoorden blof - Buit

Dankzij de bladmuziek op deze pagina wordt het een stuk makkelijker om met de gitaar mee te spelen met Buit van blof De ProTabs van Gitaartabs worden door onze professionele gitaardocenten samengesteld. De tabs en chords zijn door leden zelf geplaatst. Deze undefined van blof met Buit is voor je geschreven door jacco nijssen

Tabs & Chords van blof - Buit

Bij de ProTabs delen we niet alleen de tablatuur maar ook de speelwijze van Buit Met een beetje gitaar ervaring moet je dit gitaarliedje zeker kunnen spelen, maar als het niet lukt zijn we er altijd om je te helpen. Door een gratis account aan te maken krijg je niet alleen toegang tot deze tab ,akkoorden & tabs van Buit maar kun je ook onbeperkt meespelen met een van de meer dan 25.000 andere tabs & chords in onze database.

Plaats opmerking

Verstuur

Beoordeel deze song

Rate UsDon’t love itNot greatGoodGreatLove itRate Us

Bedankt voor je beoordeling!