Neer

Gitaarliedjes, tabs & akkoorden (chords) Neer - blof

Songtype: Tab

arrow&v

Markeer als favoriet

Favoriet

Gemarkeerd als favoriet

Capo:

0

blof

blof

Song
Album
Categorie

Neer

helder

Downloads
425
Niveau
2
Geplaatst door
sander filius
ProTabs-promo.jpg

Op de CD "Helder" is dit al een lekker ruig nummer maar dit nummer is live
nog leuker. Het onderstaande is gebaseerd op hun XXL optreden met het Zeeuws
Orkest in 1998, maar is iets aangepast. (Voorbeeld: Paskal speelt geen gitaar
tijdens de eerste 2 zinnen van een couplet)


AKKOORDEN:
Dsus2 XX0230 A XX09(10)9
Dsus4 XX0233 Bm X24432
D XX0232 Bm* 324432
D* XX7750 F 133211
G 320033 Bes X13331
G* XX0787

Bij de Bm* gewoon de wijsvinger op de 3e toets van de E-snaar zetten.


1 INTRO)
Dsus2 D* G* A Dsus2
E-------0-------0----7----9-------0--0-----------------------------------
B-------3----5--5----8----10------3-----3---2H3--3----2H3--3-------------
G-------2-------7----7----9-------2--------------------------------------
D--0-0--0-------7-----------------0--------------------------------------
A------------------------------------------------------------------------
E------------------------------------------------------------------------
pm pm

Dsus2 D* G* A
E-------0-------0----7----9----------------------------------------------
B-------3----5--5----8----10------15-15~~~--15-15~~~--15-15~~~--15-15~~~-
G-------2-------7----7----9----------------------------------------------
D-------0-------7--------------------------------------------------------
A------------------------------------------------------------------------
E------------------------------------------------------------------------

Dsus2 D* G* A Dsus2
E-------0-------0----7----9-------0--0-----------------------------------
B-------3----5--5----8----10------3-----3---2H3--3----2H3--3-------------
G-------2-------7----7----9-------2--------------------------------------
D-------0-------7-----------------0--------------------------------------
A------------------------------------------------------------------------
E------------------------------------------------------------------------

Dsus2 D* G* A Dsus2
E-------0-------0----7----9-------0--------------------------------------
B-------3----5--5----8----10------3--------------------------------------
G-------2-------7----7----9-------2--------------------------------------
D-------0-------7-----------------0--------------------------------------
A------------------------------------------------------------------------
E------------------------------------------------------------------------


2 COUPLET)
/ Dsus2 / / Dsus2 /
"Wat ze zegt is prachtig: Blij je weer te zien!"

/ Dsus2 / / Dsus2 /
"Maar ik heb niks meer te zeggen. Dus nou, tot ziens, misschien."

/ Bm / / Bm* / / Bm / / Bm* /
"En ik voel m'n ogen branden. Sla ze snel maar neer."

/ Bm / / Bm* / / F / / Bes / / Dsus2 / / Dsus4 / / D /
"Ze glijdt me zo uit handen. Voor de allerlaatste keer."


3 REFREIN)
/ D / / Bm / / G /
"Neer, we gaan neer."

/ D / / Bm / / G /
"Neer, we gaan neer."

/ D / / Bm /
"En deze keer niet bij nacht"

/ G /
"Niet bij ontij of slecht weer"

/ Bm / / Bm* /
"Neer, we gaan neer"

/ Bm / / Bm* /
"Neer, we gaan neer"


4 SOLO)
E---------------------------------------------------------------------------
B--3~~~--2H3/5--3--2H3--3~~~----2H3/5--3--2H3--3~~~----2H3/5--3--2H3--3~~~--
G---------------------------------------------------------------------------
D---------------------------------------------------------------------------
A---------------------------------------------------------------------------
E---------------------------------------------------------------------------

E---------------------------------------------------------------------------
B--3/5-5-5~~--5/7--7-7~~--7/10--10-10~~--10/12--12--12~~----12-13-15-13-----
G---------------------------------------------------------------------------
D---------------------------------------------------------------------------
A---------------------------------------------------------------------------
E---------------------------------------------------------------------------

E---------------------------------------------------------------------------
B--12H13-13~~~---12-13-15-13-15b17r15-12-13---12-13-15-13-12H13-13~~~-------
G---------------------------------------------------------------------------
D---------------------------------------------------------------------------
A---------------------------------------------------------------------------
E---------------------------------------------------------------------------

E-----------12-13-15/17-15--------------------------------------------------
B--12-13-15-----------------------------------------------------------------
G---------------------------------------------------------------------------
D---------------------------------------------------------------------------
A---------------------------------------------------------------------------
E---------------------------------------------------------------------------


5 EIND-TRO)
E-----------------------|-2---2----3----3P2----------------------|----------
B-----------------------|-3-----3----3---------------------------|----------
G-----------------------|-2-2---------------2--------------------|----------
D-----------------------|----------------------------------------|----------
A-----------------------|-------------------------2~~~~---3~~~~--|----------
E-----------------------|----------------------------------------|----------
8X
"We gaan NEEEEEEER!!!"




TEKST:

Wat ze zegt is prachtig: Blij je weer te zien!
Maar ik heb niks meer te zeggen. Dus nou, tot ziens, misschien.
En ik voel m'n ogen branden, sla ze snel maar neer.
Ze glijdt me zo uit handen voor de allerlaatste keer.

Neer, we gaan neer.
Neer, we gaan neer.
En deze keer niet bij nacht.
Niet bij ontij of slecht weer.
We gaan neer.
Neer, we gaan neer.

Wat ze zegt is prachtig: Ik spreek niet meer zo veel.
Wat ik nog wil zeggen stokt me in de keel.
En ik wil nog wel iets moois doen, dus ik doe mijn ogen dicht.
Ik denk aan haar gedachten en ik denk aan haar gezicht.

Neer, we gaan neer.
Neer, we gaan neer.
En deze keer niet bij nacht.
Niet bij ontij of slecht weer.
We gaan neer.
Neer, we gaan neer.

Neer, we gaan neer.
Neer, we gaan neer.
En deze keer niet bij nacht.
Niet bij ontij of slecht weer.
We gaan neer.
Neer, we gaan neer.

ProTabs promo.jpg

Onbeperkt en gratis toegang tot alle 25.000
Tabs & Chords en direct meespelen met

Artiest Liedje

...

Gitaarakkoorden blof - Neer

Dankzij de bladmuziek op deze pagina wordt het een stuk makkelijker om met de gitaar mee te spelen met Neer van blof De ProTabs van Gitaartabs worden door onze professionele gitaardocenten samengesteld. De tabs en chords zijn door leden zelf geplaatst. Deze undefined van blof met Neer is voor je geschreven door sander filius

Tabs & Chords van blof - Neer

Bij de ProTabs delen we niet alleen de tablatuur maar ook de speelwijze van Neer Met een beetje gitaar ervaring moet je dit gitaarliedje zeker kunnen spelen, maar als het niet lukt zijn we er altijd om je te helpen. Door een gratis account aan te maken krijg je niet alleen toegang tot deze tab ,akkoorden & tabs van Neer maar kun je ook onbeperkt meespelen met een van de meer dan 25.000 andere tabs & chords in onze database.

Plaats opmerking

Beoordeel deze song

Rate UsDon’t love itNot greatGoodGreatLove itRate Us

Bedankt voor je beoordeling!